Oops, an error
Loading. Please wait.

The End Chords

version 1
version 1

Whole song

Interactive

59,992 views 15 this week
3 commentsread comments
1 2 3 4 5
accurate
x 8
add to favorites
launch autoscroll
font size
0
reset
transpose
0
reset
display chords
guitar tuner
Autoscroll
slow
fast
+/-
esc
set tempo
stop
Help us to improve Ultimate-Guitar.com Take our survey!
×
Author
Silverstein
The End Feat. Lights
A Shipwreck In The Sand
2009
Submitted by: paramore_fans@yahoo.com

Key: B then E

Tuning: Standard EADGBe

Chords used:
G#m - 466444
E -   022100
B -   x24442
F# -  244322
A -   x02220
C#m - x46654


Intro: G#m--E x2, G#m-E x2

Guitar 2:
e|-------------|-----|-------------|-----------------|
B|-4-----4-----|---0-|-4-----4-----|-----------------|
G|---4-----4---|-----|---4-----4---|-----------------|
D|-------------|-1---|-------------|-4-4-4-4-1-1-1-1-|
A|-------------|-----|-------------|-----------------|
E|-----4-----4-|-----|-----0-----0-|-----------------|
       x2                  x2

      x means palm mute
e|-------------------------|-------------------------|
B|-------------2-----4-----|-------------2-----4-----|
G|---------------4-----4---|---------------4-----4---|
D|-6-6-6-6-6-6-------------|-2-2-2-2-2-2-------------| x2
A|-6-6-6-6-6-6-------------|-2-2-2-2-2-2-------------|
E|-4-4-4-4-4-4-----4-----4-|-0-0-0-0-0-0-----0-----0-|
   x x x x x x               x x x x x x


Verse 1:

Shane:
G#m             E
  First time we met
G#m           E
  Face became etched
      (hold)
In my mind


Beat Changes:

Shane:
G#m            E
  You were the sun
G#m         E
  I was the one
Who worshiped you
G#m                  E
  My hands were your guns
G#m                 E
  Your eyes were my nerve


Chorus 1:1st only Shane Told, 2nd duet with Lights
      G#m
And I knew you could
B          E
never love me
  G#m
I had so much
B        E
sorrow inside
You could never reach
G#m   B           E
  But can I still keep
G#m B             E
  A place in your heart


Verse 2:

Lights:
G#m            E
  You broke my heart
G#m            E
  You promised me
the moon and stars
G#m               E
  I fell for your dreams
                G#m
I fell for your lies
                   E
There was no other way
You know I tried


(Repeat Chorus 1)


Interlude: G#m--F#-E--

Bridge:

Shane:
G#m
There is something
F#  E
  I want you to know
  G#m
I think you know
 F#         E
exactly what it is
  G#m    F#
I didn't want to save you
  E
I didn't want to save you
  G#m              F#
I set our house on fire
            E
To watch it burn But I
couldn't just leave you


Chorus 2:

Shane: Lights in parenthesis
      G#m
And I knew you could
B          E
never love me
  G#m
I had so much
B        E
sorrow inside
You could never reach
G#m   B           E
  But can I still keep
G#m B              E
    Will you still miss me?
(Yes I miss you)
Do you love me?
(Yes I love you)


Verse 3: Duet
C#m            B
Planes fill the sky
      A
We'll both die tonight
      E
We'll both die tonight
C#m             B
Hands from the sky
         A
Swat us away like flies
      E
As we follow the light
C#m  B    A    E
whoa whoa whoa whoa
C#m  B    A    E
whoa whoa whoa whoa
C#m  B    A    E
whoa whoa whoa whoa
C#m  B    A    E
whoa whoa whoa whoa
C#m            B
Planes fill the sky
      A
We'll both die tonight
      E
We'll both die tonight
C#m             B
Hands from the sky
         A
Swat us away like flies
      E
As we follow the light
C#m            B
Planes fill the sky
      A
We'll both die tonight
      E
We'll both die tonight
C#m             B
Hands from the sky
         A
Swat us away like flies
                      C#m(hold)
As we follow the light


A--B--C#m-- x2


Outro:
A           B
  This union a battle
           C#m
fought and lost
This union was not
          A
about the cause
          B
This union was
            C#m A B C#m x4
never about love
Suggest correction
What's this?
You can suggest a correction to this tab. Community and Mods will review your correction and vote to approve or reject it.
comments
print report bad tab
3 comments total.
+1 reply
xX Madara Xx 14 wrote on April 27 2009, 07:11 pm

Correction on lyrics.
My hands were your guns
your eyes were my **Muse**

0 reply
Tylernol 167 wrote on December 23 2010, 12:40 pm

nice tab, all the chords sound right the i just think that the --4-4-4-4-1-1-1-1-- on the D string that guitar 2 does near the beginning should actually be:

e|-------------------------|
B|-------------------------|
G|-9-9-9-9-9-9-8-8-8-8-8-8-|
D|-9-9-9-9-9-9-9-9-9-9-9-9-|
A|-7-7-7-7-7-7-7-7-7-7-7-7-|
E|-------------------------|

also this

e|-------------------------|-------------------------|
B|-------------2-----4-----|-------------2-----4-----|
G|---------------4-----4---|---------------4-----4---|
D|-6-6-6-6-6-6-------------|-2-2-2-2-2-2-------------| x2
A|-6-6-6-6-6-6-------------|-2-2-2-2-2-2-------------|
E|-4-4-4-4-4-4-----4-----4-|-0-0-0-0-0-0-----0-----0-|
x x x x x x x x x x x x

should be

e|-------------------------|-------------------------|
B|-------------------------|-------------------------|
G|-------------6-4---8-4---|-9-9-9-9-9-9-6-4---8-6---|
D|-6-6-6-6-6-6-----6-----6-|-9-9-9-9-9-9-------------| x3
A|-6-6-6-6-6-6-------------|-7-7-7-7-7-7-----7-----7-|
E|-4-4-4-4-4-4-------------|-------------------------|
x x x x x x x x x x x x

e|-------------------------|-------------------------|
B|----(continue struming---|-------------------------|
G|-9--until after he says--|-8~~~--6~~~--------------|
D|-9--"my mind...")--------|-9~~~--------------------|
A|-7-----------------------|-7~~~--------------------|
E|-------------------------|-------------------------|
x

Its pretty much the same notes you have, but i think these are closer octaves of the guitarist is actually playing, and i also find its easier to make the transition to each chord playing it this way, and you were missing that last part

thanks for tabbing this song, its awesome :)

0 reply
Tylernol 167 wrote on December 23 2010, 12:42 pm

i dont know why all the x's got shifted to the left when i posted the correction above, but there supposed be under the power chords

guest
You may want to rate the tab now too:
select rating
Please do not post tabs as comments. Select "correction" instead!