Oops, an error
Loading. Please wait.

The End Tab

version 1
version 1

Whole song

Interactive

56,684 views 48 this week
3 commentsread comments
1 2 3 4 5
accurate
x 11
add to favorites
launch autoscroll
font size
0
reset
how to read this tab
guitar tuner
Tab Pro tools
  • play this tab
  • loop segment
  • change instrument
  • show fretboard
  • metronome
×
Best way to learn
"The End"
Autoscroll
slow
fast
+/-
esc
set tempo
stop
Contributor
OK first off, this is not a tab i tabbed myself.
This is Ball41's from youtube so i take no credit in this.
I'm sorry if i made any mistakes writing down the tab that he explained.
Please correct if I'm wrong

Tuning: Half-Step Down

Key:
~=Strum/Pick on (Yeah...I'm too lazy to figure out how many times you gotta strum/Pick it though)
.=Palm Mute
p=Pull Off
Intro:

e|0-----0---0-----0---0-----0---0-----0----0-----0---0-----0-----------|
B|----3---------3---------3---------3----------3---------3-------------|
G|--5---------5---------5---------5----------5---------5------7~----5~-|
D|--------------------5---------3-----------------------------5~----3~-|
A|0---------0------------------------------0---------0-----------------|
E|---------------------------------------------------------------------|

e|-------------0---------------------0---------|    x3
B|-------3p1-----1-------------3p1-----1-------|
G|-----------2-----2---------------2-----2-----|
D|----------------------333333-----------------|
A|000000---------------------------------------|
E|---------------------------------------------|
  ......                ......

e|-------------0--------------|
B|-------3p1-----1------------|
G|-----------2-----2-----5--5-|
D|-------------------3~--3----|
A|000000----------------------|
E|----------------------------|
  ......             .

Verse
                          x4
e|----------------------|
B|----------------------|
G|12~------12~------12~-|
D|10~------10~------10~-|
A|12~-------8~-------7~-|
E|----------------------|

Chorus
                       x4
e|-------------------|
B|-------------------|
G|5~------5~---------|
D|5~------5~------3~-|
A|--------3~------3~-|
E|5~--------------1~-|

(Repeat verse)
(Repeat Chorus)

Bridge
                                               x5
e|-------------------------------------------|
B|-------------------------------------------|
G|------------555--555------------555--555---|
D|--222--22233---22-----222--22233---22---3~-|
A|00---00---------------------------------3~-|
E|--------------------33---33-------------1~-|

(Repeat chorus)

Outro
                                           x8
e|------------------------------|
B|------------------------------|
G|10~-----------------------10~-|
D|10~------10~------10~-----10~-|
A|---------10~------8~------8~--|
E|10~------8 ~------6~----------|

End
comments
print report bad tab
3 comments total.
0 reply
marcamus1 wrote on May 8 2009, 08:42 pm

this is a great tab, Ive been waiting since I first heard the song to get a tab for it and this couldnt have come sooner. sounds like theres some mistakes but good overell

0 reply
r0ckth3d34n wrote on August 2 2009, 09:48 pm

The E chord at the end of the verse should go...
Eb-------
Bb-------
Gb-------
Db-3-2-0-
Ab-3-3-3-
Eb-1-1-1-

Thats all I can find right now, and thats not the right rhythm.

0 reply
screamo_core wrote on February 6 2010, 11:14 am

I have to quick correctionse

e|----------------------------------|
B|----------------------------------|
G|10~----------10\12------------10~-|
D|10~------10~--X-X-X4--10~-----10~-|
A|---------10~--8\10----8~------8~--|
E|10~------8 ~----------6~----------|


and well i dont know the begining of the end... when it starts "this union a battle fought and lost..."but i think i know the chords
e|---------------------------|
B|---------------------------|
G|---------------------------|
D|-10-----10-----12----------|really slow
A|--8-X6?-10-X6?--12X6?------|
E|--6------8-----10----------|


this is how i play it anyways

I want to post or [tab]
guest
You may want to rate the tab now too:
select rating
Please do not post tabs as comments. Select "correction" instead!