Oops, an error
Loading. Please wait.

The End Tab

version 3
version 3

Whole song

Interactive

2,452 views 1 this week
1 commentread comment
1 2 3 4 5
please rate
add to favorites
launch autoscroll
font size
0
reset
how to read this tab
guitar tuner
Autoscroll
slow
fast
+/-
esc
set tempo
stop
Help us to improve Ultimate-Guitar.com Take our survey!
×
Author
Difficulty
Tuning
novice
D# G# C# F# A# D#
-------------------------------------------------------------------------------
THE END - Silverstein (Featuring Lights)
-------------------------------------------------------------------------------
Tabbed by: drein_14
Email: drin_014@yahoo.com

Tuning: Half-Step Down


This is my first tab so please rate it.
I have no idea how accurate this tab is. I just learn it with my ear and have 
in parts where there is an electric guitar strumming. If you have comments and suggestion about 
tab please e-mail me.

Intro:

Guitar 1

eb|-------------------------------------------------------------|
Bb|5---5-----------5---5-----------5---5------------------------|
Gb|--5---5-----------5---5-----------5---5----------------------|
Db|----------------5-------3-----------------------555555333333-|
Ab|-------------------------------------------------------------|
Eb|5-------5-----------------------5-------5--------------------|

Guitar 2

eb|-------------------------------------------------------------|
Bb|--------5---5-----------5---5-----------5---5----------------|
Gb|----------5---5-----------5---5-----------5---5--------------|
Db|----------------5-------3-----------------------555555333333-|
Ab|-------------------------------------------------------------|
Eb|5-------5-----------------------5-------5--------------------|

(Or you can merge the two guitars to play like this:)

eb|-------------------------------------------------------------|
Bb|5---5---5---5---5---5---5---5---5---5---5---5----------------|
Gb|--5---5---5---5---5---5---5---5---5---5---5---5--------------|
Db|----------------5-------3-----------------------555555333333-|
Ab|-------------------------------------------------------------|
Eb|5-------5-----------------------5-------5--------------------|


Either any of the guitars can play it or both.

eb|---------0-----------0-----------0-----------0---|
Bb|------31--1-------31--1-------31--1-------31--1--|
Gb|--------2--2--------2--2--------2--2--------2--2-|
Db|------------333333------------------333333-------|
Ab|000000------------------000000-------------------|
Eb|-------------------------------------------------|


Lyrics: First time wet met. Face became etched in my mind.

eb|---------0-----------0-----------0---|
Bb|------31--1-------31--1-------31--1--|
Gb|--------2--2--------2--2--------2--2-|
Db|------------333333-------------------|
Ab|000000------------------000000-------|
Eb|-------------------------------------|

eb|------------------------------------0---------------|
Bb|------------------------------------1-------3-------|
Gb|------------------------------------2---------------|
Db|333333333333333333333333333333333333----------------|
Ab|----------------------------------------------------|
Eb|----------------------------------------------------|


Verse:

eb|3-33333-33333-00000-----x-xxxxx-xxxxx-00000-----|
Bb|x-xxxxx-xxxxx-xxxxx-33331-11111-11111-11111-3333|
Gb|5-55555-55555-55555-55550-00000-00000-00000-0000|
Db|5-55555-55555-55555-55553-33333-33333-33333-3333|
Ab|0-00000-00000-00000-00003-33333-33333-33333-3333|
Eb|------------------------------------------------|


Chorus:

eb|--------------------------------------0-0000------|
Bb|--------------------------1-11113-3333x-xxxx3-3333|
Gb|5-55555-xxxxx5-55555-xxxxx0-00000-00000-00000-0000|
Db|5-55555-xxxxx5-55555-xxxxx3-33333-33333-33333-3333|
Ab|x-xxxxx-xxxxx3-33333-xxxxx3-33333-33333-33333-3333|
Eb|5-55555-xxxxxx-xxxxx-xxxxx------------------------|

eb|--------------------------------------0-00003-3333|
Bb|--------------------------1-11113-3333x-xxxxx-xxxx|
Gb|5-55555-xxxxx5-55555-xxxxx0-00000-00000-00000-0000|
Db|5-55555-xxxxx5-55555-xxxxx3-33333-33333-33333-3333|
Ab|x-xxxxx-xxxxx3-33333-xxxxx3-33333-33333-33333-3333|
Eb|5-55555-xxxxxx-xxxxx-xxxxx------------------------|

eb|--------------------------------3-33331-11110-0000|
Bb|--------------------------1-1111x-xxxxx-xxxxx-xxxx|
Gb|5-55555-xxxxx5-55555-xxxxx0-00000-00000-00000-0000|
Db|5-55555-xxxxx5-55555-xxxxx3-33333-33333-33333-3333|
Ab|x-xxxxx-xxxxx3-33333-xxxxx3-33333-33333-33333-3333|
Eb|5-55555-xxxxxx-xxxxx-xxxxx------------------------|

eb|---------------------------------------------------|
Bb|--------------------------1-11111-11111~-----------|
Gb|5-55555-xxxxx5-55555-xxxxx0-00000-00000~-----------|
Db|5-55555-xxxxx5-55555-xxxxx3-33333-33333~-----------|
Ab|x-xxxxx-xxxxx3-33333-xxxxx3-33333-33333~-----------|
Eb|5-55555-xxxxxx-xxxxx-xxxxx-------------------------|


After second chorus:

Guitar 1

eb|------------------------------------------------|
Bb|------------------------------------------------|
Gb|---------------555---555---------------555---555|
Db|---222---2223-3---2-2------222---2223-3---2-2---|
Ab|0-0---0-0---------------------------------------|
Eb|------------------------3-3---3-3---------------|

eb|------------------------------------------------|
Bb|------------------------------------------------|
Gb|------------------------------------------------|
Db|5-55555-55554-44444-44442-22222-22220-00000-0000|
Ab|3-33333-33333-33333-33333-33333-33333-33333-3333|
Eb|1-11111-11111-11111-11111-11111-11111-11111-1111|

Lyrics: I set our house on fire to watch it burn, but i couldn't just leave you (there)

eb|------------------------------------------------|
Bb|------------------------------------------------|
Gb|---------------555---555---------------555---555|
Db|---222---2223-3---2-2------222---2223-3---2-2---|
Ab|0-0---0-0---------------------------------------|
Eb|------------------------3-3---3-3---------------|

eb|------------------------------------------------|
Bb|------------------------------------------------|
Gb|------------------------5-55555-55555-55555-5555|
Db|5-55555-55554-44444-44445-55555-55555-55555-5555|
Ab|3-33333-33333-33333-33333-33333-3333x-xxxxx-xxxx|
Eb|1-11111-11111-11111-1111------------3-33333-3333|


Third chorus:

eb|--------------------------------------0-0000------|
Bb|--------------------------1-11113-3333x-xxxx3-3333|
Gb|5-55555-xxxxx5-55555-xxxxx0-00000-00000-00000-0000|
Db|5-55555-xxxxx5-55555-xxxxx3-33333-33333-33333-3333|
Ab|x-xxxxx-xxxxx3-33333-xxxxx3-33333-33333-33333-3333|
Eb|5-55555-xxxxxx-xxxxx-xxxxx------------------------|

eb|--------------------------------------0-00003-3333|
Bb|--------------------------1-11113-3333x-xxxxx-xxxx|
Gb|5-55555-xxxxx5-55555-xxxxx0-00000-00000-00000-0000|
Db|5-55555-xxxxx5-55555-xxxxx3-33333-33333-33333-3333|
Ab|x-xxxxx-xxxxx3-33333-xxxxx3-33333-33333-33333-3333|
Eb|5-55555-xxxxxx-xxxxx-xxxxx------------------------|

eb|--------------------------------3-33331-11110-0000|
Bb|--------------------------1-1111x-xxxxx-xxxxx-xxxx|
Gb|5-55555-xxxxx5-55555-xxxxx0-00000-00000-00000-0000|
Db|5-55555-xxxxx5-55555-xxxxx3-33333-33333-33333-3333|
Ab|x-xxxxx-xxxxx3-33333-xxxxx3-33333-33333-33333-3333|
Eb|5-55555-xxxxxx-xxxxx-xxxxx------------------------|

eb|--------------------------|
Bb|--------------------------|
Gb|5-55555-xxxxx5-55555-xxxxx|
Db|5-55555-xxxxx5-55555-xxxxx|
Ab|x-xxxxx-xxxxx3-33333-xxxxx|
Eb|5-55555-xxxxxx-xxxxx-xxxxx|

Lyrics: -miss me (yes I miss you) will you love me (yes I love you)

eb|------------------------------------------------|
Bb|1-1-1-1-1-1-1-1-1-1-1-1-1-1-1-1-1-1-1-1-1-1-1-1-|
Gb|0-0-0-0-0-0-0-0-0-0-0-0-0-0-0-0-0-0-0-0-0-0-0-0-|
Db|3-3-3-3-3-3-3-3-3-3-3-3-3-3-3-3-3-3-3-3-3-3-3-3-|
Ab|3-3-3-3-3-3-3-3-3-3-3-3-3-3-3-3-3-3-3-3-3-3-3-3-|
Eb|------------------------------------------------|

Lyrics: Planes fill the sky

eb|--------------------------------------------|
Bb|--------------------------------------------|
Gb|10-1010101010-1010101010-1010101010-10101010|
Db|10-1010101010-1010101010-1010101010-10101010|
Ab|x--x-x-x-x-x--x-x-x-x-x--x-x-x-x-x--x-x-x-x-|
Eb|10-1010101010-1010101010-1010101010-10101010|

eb|--------------------------------------------|
Bb|--------------------------------------------|
Gb|10-1010101010-1010101010-1010101010--10/12--|
Db|10-1010101010-1010101010-1010101010---------|
Ab|x--x-x-x-x-x--x-x-x-x-x--x-x-x-x-x----------|
Eb|8--8-8-8-8-8--8-8-8-8-8--8-8-8-8-8----------|

eb|----------------------------------|
Bb|----------------------------------|
Gb|10-1010101010-101010109-99999-9999|
Db|8--8-8-8-8-8--8-8-8-8-8-88888-8888|
Ab|x--x-x-x-x-x--x-x-x-x-x-xxxxx-xxxx|
Eb|6--6-6-6-6-6--6-6-6-6-6-66666-6666|

eb|--------------------------------------------|
Bb|----------------------10-1010101010---------|
Gb|10-1010101012-12121212x--x-x-x-x-x--10101010|
Db|10-1010101010-1010101010-1010101010-10101010|
Ab|8--8-8-8-8-8--8-8-8-8-8--8-8-8-8-8--8-8-8-8-|
Eb|--------------------------------------------|

Lyrics: whoa, whoa, whoa, whoa

eb|---------------------------------8-------|
Bb|------------------------------------11-10|
Gb|10-1010101010-1010101010-10101010--------|
Db|10-1010101010-1010101010-1010101010-10-10|
Ab|x--x-x-x-x-x--x-x-x-x-x--x-x-x-x-x--x--x-|
Eb|10-1010101010-1010101010-1010101010-10-10|

eb|--------------------------------------------|
Bb|--------------------------------------------|
Gb|10-1010101010-1010101010-1010101010--10/12--|
Db|10-1010101010-1010101010-1010101010---------|
Ab|x--x-x-x-x-x--x-x-x-x-x--x-x-x-x-x----------|
Eb|8--8-8-8-8-8--8-8-8-8-8--8-8-8-8-8----------|

eb|----------------------------------|
Bb|----------------------------------|
Gb|10-1010101010-101010109-99999-9999|
Db|8--8-8-8-8-8--8-8-8-8-8-88888-8888|
Ab|x--x-x-x-x-x--x-x-x-x-x-xxxxx-xxxx|
Eb|6--6-6-6-6-6--6-6-6-6-6-66666-6666|


eb|---------------------------------8-------|
Bb|----------------------10-10101010---11-10|
Gb|10-1010101012-12121212x--x-x-x-x-x--10-10|
Db|10-1010101010-1010101010-1010101010-10-10|
Ab|8--8-8-8-8-8--8-8-8-8-8--8-8-8-8-8--8--8-|
Eb|-----------------------------------------|


Lyrics: Swat us away like flies ,whoa, (we'll both die tonight) as we follow the light 
the light)

eb|---------------------------------8-------|
Bb|------------------------------------11-10|
Gb|10-1010101010-1010101010-10101010--------|
Db|10-1010101010-1010101010-1010101010-10-10|
Ab|x--x-x-x-x-x--x-x-x-x-x--x-x-x-x-x--x--x-|
Eb|10-1010101010-1010101010-1010101010-10-10|

eb|--------------------------------------------|
Bb|--------------------------------------------|
Gb|10-1010101010-1010101010-1010101010--10/12--|
Db|10-1010101010-1010101010-1010101010---------|
Ab|x--x-x-x-x-x--x-x-x-x-x--x-x-x-x-x----------|
Eb|8--8-8-8-8-8--8-8-8-8-8--8-8-8-8-8----------|

eb|----------------------------------|
Bb|----------------------------------|
Gb|10-1010101010-101010109-99999-9999|
Db|8--8-8-8-8-8--8-8-8-8-8-88888-8888|
Ab|x--x-x-x-x-x--x-x-x-x-x-xxxxx-xxxx|
Eb|6--6-6-6-6-6--6-6-6-6-6-66666-6666|


eb|13-1313131312-12121212-------------------------|
Bb|x--x-x-x-x-x--x-x-x-x-13-1313131313-13131313---|
Gb|10-1010101010-1010101010-1010101010-1010101010~|
Db|10-1010101010-1010101010-1010101010-1010101010~|
Ab|8--8-8-8-8-8--8-8-8-8-8--8-8-8-8-8--8-8-8-8-x--|
Eb|--------------------------------------------10~|


Outro:

Guitar 1

eb|-------------------------------------------------|
Bb|-------------------------------------------------|
Gb|---------------------9------9------9--9-9-9------|
Db|10-----10-----10-101010-----10-----10-101010-----|
Ab|8------8------8--8-8-7------7------7--7-7-x------|
Eb|6------6------6--6-6-x------x------x--x-x-10-----|

eb|-------------------------------------|
Bb|-------------------------------------|
Gb|9------9--9-9-9------9------9--9-9-9-|
Db|10-----10-101010-----10-----10-101010|
Ab|x------x--x-x-x------x------x--x-x-x-|
Eb|10-----10-101010-----10-----10-101010|

Guitar 2

eb|--------------------------------------------------------------------------|
Bb|--------------------------------------------------------------------------|
Gb|3/5-----2-----------------------------------------------------------------|
Db|--------------3-3/5-------2-----------------------------------------------|
Ab|--------------------------------3-3/5-------------------------------------|
Eb|--------------------------------------------------------------------------|

eb|-------------------------------------------------------------------|
Bb|-------------------------------------------------------------------|
Gb|-------------------------------------------------------------------|
Db|2/3-----------5-2-------------2-3-------0--------------------------|
Ab|--------5---------------3------------------------------------------|
Eb|-------------------------------------------------------------------|


************************************

| /   slide up
| \   slide down
| h   hammer-on
| p   pull-off
| ~   vibrato
| +   harmonic
| x   Mute note
| b   Bend
| pb  Pre-bend
| br  Bend release
| pbr Pre-bend release
| brb Bend release bend

************************************
Suggest correction
What's this?
You can suggest a correction to this tab. Community and Mods will review your correction and vote to approve or reject it.
comments
We did not receive enough feedback on this tab! Please rate:
print report bad tab
1 2 3 4 5
1 comment total.
0 reply
aLyPOP 16 wrote on September 10 2011, 12:31 am

For me this one is the best.. ^^ NICE!!

guest
You may want to rate the tab now too:
select rating
Please do not post tabs as comments. Select "correction" instead!