Oops, an error
Loading. Please wait.

The End Tab

version 5
version 5

Whole song

Interactive

810 views 1 this week
no commentswrite comment
1 2 3 4 5
please rate
add to favorites
launch autoscroll
font size
0
reset
how to read this tab
guitar tuner
Autoscroll
slow
fast
+/-
esc
set tempo
stop
Help us to improve Ultimate-Guitar.com Take our survey!
×
Author
Difficulty
Tuning
novice
D# G# C# F# A# D#
re-tabbed by: Ramen Cascante

this tab is according to the youtube tutorial that i found
hope you like it since i didn't find his tab anywhere except there.


intro
|----0-----0--0-----0--0-----0--0-----0--0-----0--0-----0----|
|--------3--------3--------3--------3--------3--------3------|
|------5--------5--------5--------5--------5--------5--------|
|----------------------5--------3----------------------------|
|------------------------------------------------------------|
|----0--------0--------------------------0--------0----------|

|-------------------------------|
|----7-7-7-7-7-7-5-5-5-5-5-5----|
|----5-5-5-5-5-5-3-3-3-3-3-3----|
|-------------------------------|
|-------------------------------|
|-------------------------------|
     . . . . . . . . . . . .

|----------------------0------------------------0--------+
|----------------3p1-----1----------------3p1-----1------|
|--------------------2-----2--3-3-3-3-3-3-----2-----2----|
|--------------------------------------------------------|
|----0-0-0-0-0-0-----------------------------------------|
|--------------------------------------------------------+
     . . . . . .              . . . . . .

+----------------------0------------------------0--------+
|----------------3p1-----1----------------3p1-----1------|
|--------------------2-----2------------------2-----2----|
|-----------------------------3-333-3-3-3----------------|
|----0-0-0-0-0-0-----------------------------------------|
+--------------------------------------------------------+
     . . . . . .              . ... . . .

+----------------------0------------------------0--------+
|----------------3p1-----1----------------3p1-----1------|
|--------------------2-----2--3-3-3-3-3-3-----2-----2----|
|--------------------------------------------------------|
|----0-0-0-0-0-0-----------------------------------------|
+--------------------------------------------------------+
     . . . . . .              . . . . . .               

+----------------------0--------------------|
|----------------3p1-----1-----------5-3----|
|--------------------2-----2---------5-5----|
|----------------------------3(x36)--3-3----|
|----0-0-0-0-0-0----------------------------|
+-------------------------------------------|
     . . . . . .             .

verse

|---------------------------------------3--3-3-3-3-3--3-3-3-3-3-3-3-3-3-3-3--------------|
|----8--8-8-8-8-8--8-8-8-8-8-5-5-5-5-5--------------------------5-5-5-5-5-5-3-3-3-3-3----|
|----5--5-5-5-5-5--5-5-5-5-5-5-5-5-5-5--5--5-5-5-5-5--5-5-5-5-5-5-5-5-5-5-5-5-5-5-5-5----|
|----7--7-7-7-7-7--7-7-7-7-7-7-7-7-7-7--3--3-3-3-3-3--3-3-3-3-3-3-3-3-3-3-3-3-3-3-3-3----| 4x
|----------------------------------------------------------------------------------------|
|----------------------------------------------------------------------------------------|

chorus

|--------------------------------------------------------------------------------------|
|--------------------------------------------------------------------------------------|
|---------------------------5--5-5-5-5-5-----------------------------------------------|
|----7--7-7-7-7-7--x-x-x-x--5--5-5-5-5-5--x-x-x-x-------------0--0-0-0-0-2--0-0-0-0----|
|----7--7-7-7-7-7--x-x-x-x--3--3-3-3-3-3--x-x-x-x--3--3-3-3-3-3--3-3-3-3-3--3-3-3-3----|
|----5--5-5-5-5-5--x-x-x-x----------------x-x-x-x--1--1-1-1-1-1--1-1-1-1-1--1-1-1-1----|

|-----------------------------------------------------------------------------+
|-----------------------------------------------------------------------------|
|---------------------------5--5-5-5-5-5--------------------------------------|
|----7--7-7-7-7-7--x-x-x-x--5--5-5-5-5-5--x-x-x-x-------------0--0-0-0-0-2----|
|----7--7-7-7-7-7--x-x-x-x--3--3-3-3-3-3--x-x-x-x--3--3-3-3-3-3--3-3-3-3-3----|
|----5--5-5-5-5-5--x-x-x-x----------------x-x-x-x--1--1-1-1-1-1--1-1-1-1-1----+

+---------------------------|
|---------------------------|
|---------------------------|
|----2-2-2-2-5--5-5-5-5-----|
|----3-3-3-3-3--3-3-3-3-----|
+----1-1-1-1-1--1-1-1-1-----|

|-----------------------------------------------------------------------------+
|-----------------------------------------------------------------------------|
|---------------------------5--5-5-5-5-5--------------------------------------|
|----7--7-7-7-7-7--x-x-x-x--5--5-5-5-5-5--x-x-x-x-------------5--5-5-5-5-3----|
|----7--7-7-7-7-7--x-x-x-x--3--3-3-3-3-3--x-x-x-x--3--3-3-3-3-3--3-3-3-3-3----|
|----5--5-5-5-5-5--x-x-x-x----------------x-x-x-x--1--1-1-1-1-1--1-1-1-1-1----+

+--------------------------|
|--------------------------|
|--------------------------|
|----3-3-3-3-2--2-2-2-2----|
|----3-3-3-3-3--3-3-3-3----|
+----1-1-1-1-1--1-1-1-1----|

|-----------------------------------------------------------------------------|
|-----------------------------------------------------------------------------|
|---------------------------5--5-5-5-5-5--------------------------------------|
|----7--7-7-7-7-7--x-x-x-x--5--5-5-5-5-5--x-x-x-x--3--3-3-3-3-3--3-3-3-3-3~---|
|----7--7-7-7-7-7--x-x-x-x--3--3-3-3-3-3--x-x-x-x--3--3-3-3-3-3--3-3-3-3-3~---|
|----5--5-5-5-5-5--x-x-x-x----------------x-x-x-x--1--1-1-1-1-1--1-1-1-1-1~---|

verse

|---------------------------------------3--3-3-3-3-3--3-3-3-3-3-3-3-3-3-3-3--------------|
|----8--8-8-8-8-8--8-8-8-8-8-5-5-5-5-5--------------------------5-5-5-5-5-5-3-3-3-3-3----|
|----5--5-5-5-5-5--5-5-5-5-5-5-5-5-5-5--5--5-5-5-5-5--5-5-5-5-5-5-5-5-5-5-5-5-5-5-5-5----|
|----7--7-7-7-7-7--7-7-7-7-7-7-7-7-7-7--3--3-3-3-3-3--3-3-3-3-3-3-3-3-3-3-3-3-3-3-3-3----| 3x
|----------------------------------------------------------------------------------------|
|----------------------------------------------------------------------------------------|

|---------------------------------------3--3-3-3-3-3--3-3-3-3-3--3-3-3-3-3--3-3-3-3----|
|----8--8-8-8-8-8--8-8-8-8-8-5-5-5-5-5-------------------------------------------------|
|----5--5-5-5-5-5--5-5-5-5-5-5-5-5-5-5--5--5-5-5-5-5--5-5-5-5-5--5-5-5-5-5--5-5-5-5----|
|----7--7-7-7-7-7--7-7-7-7-7-7-7-7-7-7--3--3-3-3-3-3--3-3-3-3-3--3-3-3-3-3--3-3-3-3----| 
|--------------------------------------------------------------------------------------|
|--------------------------------------------------------------------------------------|

chorus

|-----------------------------------------------------------------------------+
|-----------------------------------------------------------------------------|
|---------------------------5--5-5-5-5-5--------------------------------------|
|----7--7-7-7-7-7--x-x-x-x--5--5-5-5-5-5--x-x-x-x-------------0--0-0-0-0-2----|
|----7--7-7-7-7-7--x-x-x-x--3--3-3-3-3-3--x-x-x-x--3--3-3-3-3-3--3-3-3-3-3----|
|----5--5-5-5-5-5--x-x-x-x----------------x-x-x-x--1--1-1-1-1-1--1-1-1-1-1----+

+--------------------------|
|--------------------------|
|--------------------------|
|----2-2-2-2-0--0-0-0-0----|
|----3-3-3-3-3--3-3-3-3----|
+----1-1-1-1-1--1-1-1-1----|

|-----------------------------------------------------------------------------+
|-----------------------------------------------------------------------------|
|---------------------------5--5-5-5-5-5--------------------------------------|
|----7--7-7-7-7-7--x-x-x-x--5--5-5-5-5-5--x-x-x-x-------------0--0-0-0-0-2----|
|----7--7-7-7-7-7--x-x-x-x--3--3-3-3-3-3--x-x-x-x--3--3-3-3-3-3--3-3-3-3-3----|
|----5--5-5-5-5-5--x-x-x-x----------------x-x-x-x--1--1-1-1-1-1--1-1-1-1-1----+

+---------------------------|
|---------------------------|
|---------------------------|
|----2-2-2-2-5--5-5-5-5-----|
|----3-3-3-3-3--3-3-3-3-----|
+----1-1-1-1-1--1-1-1-1-----|

|-----------------------------------------------------------------------------+
|-----------------------------------------------------------------------------|
|---------------------------5--5-5-5-5-5--------------------------------------|
|----7--7-7-7-7-7--x-x-x-x--5--5-5-5-5-5--x-x-x-x-------------5--5-5-5-5-3----|
|----7--7-7-7-7-7--x-x-x-x--3--3-3-3-3-3--x-x-x-x--3--3-3-3-3-3--3-3-3-3-3----|
|----5--5-5-5-5-5--x-x-x-x----------------x-x-x-x--1--1-1-1-1-1--1-1-1-1-1----+

+--------------------------|
|--------------------------|
|--------------------------|
|----3-3-3-3-2--2-2-2-2----|
|----3-3-3-3-3--3-3-3-3----|
+----1-1-1-1-1--1-1-1-1----|

|-----------------------------------------------------------------------------|
|-----------------------------------------------------------------------------|
|---------------------------5--5-5-5-5-5--------------------------------------|
|----7--7-7-7-7-7--x-x-x-x--5--5-5-5-5-5--x-x-x-x--3--3-3-3-3-3--3-3-3-3-3~---|
|----7--7-7-7-7-7--x-x-x-x--3--3-3-3-3-3--x-x-x-x--3--3-3-3-3-3--3-3-3-3-3~---|
|----5--5-5-5-5-5--x-x-x-x----------------x-x-x-x--1--1-1-1-1-1--1-1-1-1-1~---|

bridge

|-----------------------------------------------------------------------------------------------+
|-----------------------------------------------------------------------------------------------|
|-----------------------------------------------------------------------------------------------|
|----------------------------10----------10-------------------------------10----------10--------|
|--------7-7-7-----7---7/8-8----8-8-7--7----7-------7-7-7-----7-----7/8-8----8-8-7--7----7------|
|----5-5-------5-5---5------------------------0-3-3-------3-3---3-3------------------------0----+

+-----------------------------------------------------+
|-----------------------------------------------------|
|-----------------------------------------------------|
|----5--5-5-5-5-5--5-5-5-5-3--3-3-3-3-3--3-3-3-3-2----|
|----3--3-3-3-3-3--3-3-3-3-3--3-3-3-3-3--3-3-3-3-3----|
+----1--1-1-1-1-1--1-1-1-1-1--1-1-1-1-1--1-1-1-1-1----+

|------------------------------------------------|
|------------------------------------------------|
|------------------------------------------------|
|----2-2-2-2-2--2-2-2-2-0--0-0-0-0-0--0-0-0-0----|
|----3-3-3-3-3--3-3-3-3-3--3-3-3-3-3--3-3-3-3----|  5x
|----1-1-1-1-1--1-1-1-1-1--1-1-1-1-1--1-1-1-1----|

|-----------------------------------------------------+
|-----------------------------------------------------|
|-----------------------------------------------------|
|----7--7-7-7-7-7--7-7-7-7-7--7-7-7-7-7--7-7-7-7-5----|
|----7--7-7-7-7-7--7-7-7-7-7--7-7-7-7-7--7-7-7-7-5----|
|----5--5-5-5-5-5--5-5-5-5-5--5-5-5-5-5--5-5-5-5-3----+

+------------------------------------------------|
|------------------------------------------------|
|------------------------------------------------|
|----5-5-5-5-5--5-5-5-5-5--5-5-5-5-5--5-5-5-5----|
|----5-5-5-5-5--5-5-5-5-5--5-5-5-5-5--5-5-5-5----|
+----3-3-3-3-3--3-3-3-3-3--3-3-3-3-3--3-3-3-3----|

|----------------------------------------------------+
|----------------------------------------------------|
|----------------------------------------------------|
|----3--3-3-3-3-3--x-x-x-x--3--3-3-3-3-3--x-x-x-x----|
|----3--3-3-3-3-3--x-x-x-x--3--3-3-3-3-3--x-x-x-x----|
|----1--1-1-1-1-1--x-x-x-x--1--1-1-1-1-1--x-x-x-x----+

+----------------------------------------------------|
|----------------------------------------------------|
|----------------------------------------------------|
|----3--3-3-3-3-3--x-x-x-x--3--3-3-3-3-3--3-3-3-3----|
|----3--3-3-3-3-3--x-x-x-x--3--3-3-3-3-3--3-3-3-3----|
+----1--1-1-1-1-1--x-x-x-x--1--1-1-1-1-1--1-1-1-1----|

chorus

|-----------------------------------------------------------------------------+
|-----------------------------------------------------------------------------|
|---------------------------5--5-5-5-5-5--------------------------------------|
|----7--7-7-7-7-7--x-x-x-x--5--5-5-5-5-5--x-x-x-x-------------0--0-0-0-0-2----|
|----7--7-7-7-7-7--x-x-x-x--3--3-3-3-3-3--x-x-x-x--3--3-3-3-3-3--3-3-3-3-3----|
|----5--5-5-5-5-5--x-x-x-x----------------x-x-x-x--1--1-1-1-1-1--1-1-1-1-1----+

+--------------------------|
|--------------------------|
|--------------------------|
|----2-2-2-2-0--0-0-0-0----|
|----3-3-3-3-3--3-3-3-3----|
+----1-1-1-1-1--1-1-1-1----|

|-----------------------------------------------------------------------------+
|-----------------------------------------------------------------------------|
|---------------------------5--5-5-5-5-5--------------------------------------|
|----7--7-7-7-7-7--x-x-x-x--5--5-5-5-5-5--x-x-x-x-------------0--0-0-0-0-2----|
|----7--7-7-7-7-7--x-x-x-x--3--3-3-3-3-3--x-x-x-x--3--3-3-3-3-3--3-3-3-3-3----|
|----5--5-5-5-5-5--x-x-x-x----------------x-x-x-x--1--1-1-1-1-1--1-1-1-1-1----+

+---------------------------|
|---------------------------|
|---------------------------|
|----2-2-2-2-5--5-5-5-5-----|
|----3-3-3-3-3--3-3-3-3-----|
+----1-1-1-1-1--1-1-1-1-----|

|-----------------------------------------------------------------------------+
|-----------------------------------------------------------------------------|
|---------------------------5--5-5-5-5-5--------------------------------------|
|----7--7-7-7-7-7--x-x-x-x--5--5-5-5-5-5--x-x-x-x-------------5--5-5-5-5-3----|
|----7--7-7-7-7-7--x-x-x-x--3--3-3-3-3-3--x-x-x-x--3--3-3-3-3-3--3-3-3-3-3----|
|----5--5-5-5-5-5--x-x-x-x----------------x-x-x-x--1--1-1-1-1-1--1-1-1-1-1----+

+---------------------------|
|---------------------------|
|---------------------------|
|----3-3-3-3-9/10-9/12------|
|----3-3-3-3----------------|
+----1-1-1-1-7/8--9/10------|

|----------------------------------------------------|
|----------------------------------------------------|
|---------------------------5--5-5-5-5-5-------------|
|----7--7-7-7-7-7--x-x-x-x--5--5-5-5-5-5--x-x-x-x----|
|----7--7-7-7-7-7--x-x-x-x--3--3-3-3-3-3--x-x-x-x----|
|----5--5-5-5-5-5--x-x-x-x----------------x-x-x-x----|

|-------------------------------------------------------|
|-------------------------------------------------------|
|-------------------------------------------------------|
|----3-3-3-3-3-3-3-3-3-3-3-3-3-3-3-3-3-3-3-3-3-3-3-3----|
|----3-3-3-3-3-3-3-3-3-3-3-3-3-3-3-3-3-3-3-3-3-3-3-3----|
|----1-1-1-1-1-1-1-1-1-1-1-1-1-1-1-1-1-1-1-1-1-1-1-1----|
     . . . . . . . . . . . . . . . . . . . . . . . .

bridge (use electric w/ acoustic)

|-----------------------------------------------------------------------------------------+
|-----------------------------------------------------------------------------------------|
|-----------------------------------------------------------------------------------------|
|---10--10-10-10-10-10--10-10-10-10-10--10-10-10-10-10--10-10-10-10-10--10-10-10-10-10----|
|----x---x--x--x--x--x---x--x--x--x--x---x--x--x--x--x---x--x--x--x--x---x--x--x--x--x----|
|----8---8--8--8--8--8---8--8--8--8--8---8--8--8--8--8---8--8--8--8--8---8--8--8--8--8----+

+-----------------------------------------------------------------+
|-----------------------------------------------------------------|
|-----------------------------------------------------------------|
|---10-10-10-10-9--9-9-9-9-9/12-12-12-12-12-10--10-10-10-10-10----|
|----x--x--x--x-x--x-x-x-x-x--x--x--x--x--x--x---x--x--x--x--x----|
+----8--8--8--8-7--7-7-7-7-7/10-10-10-10-10--8---8--8--8--8--8----+

+----------------------------------------+
|----------------------------------------|
|----------------------------------------|
|---10-10-10-10-9--9-9-9-9-9--9-9-9-9----|
|----x--x--x--x-x--x-x-x-x-x--x-x-x-x----|
+----8--8--8--8-7--7-7-7-7-7--7-7-7-7----+




+----------------------------------------------------------------------|
|----------------------------------------------------------------------|
|----------------------------------------------------------------------|
|---10--10-10-10-10-12--12-12-12-12-14--14-14-14-14-12--12-12-12-12----|   7x
|----x---x--x--x--x--x---x--x--x--x--x---x--x--x--x--x---x--x--x--x----|
+----8---8--8--8--8-10--10-10-10-10-12--12-12-12-12-12--10-10-10-10----|

|-----------------------------------------------------------------------------------------|
|-----------------------------------------------------------------------------------------|
|-----------------------------------------------------------------------------------------|
|---10--10-10-10-10-10--10-10-10-10-10--10-10-10-10-10--10-10-10-10-10--10-10-10-10-10----|
|----x---x--x--x--x--x---x--x--x--x--x---x--x--x--x--x---x--x--x--x--x---x--x--x--x--x----|
|----8---8--8--8--8--8---8--8--8--8--8---8--8--8--8--8---8--8--8--8--8---8--8--8--8--8----|

|-----------------------------------------------------------------+
|-----------------------------------------------------------------|
|-----------------------------------------------------------------|
|---10-10-10-10-9--9-9-9-9-9/12-12-12-12-12-10--10-10-10-10-10----|
|----x--x--x--x-x--x-x-x-x-x--x--x--x--x--x--x---x--x--x--x--x----|
|----8--8--8--8-7--7-7-7-7-7/10-10-10-10-10--8---8--8--8--8--8----+

+----------------------------------------|
|----------------------------------------|
|----------------------------------------|
|---10-10-10-10-9--9-9-9-9-9--9-9-9-9----|
|----x--x--x--x-x--x-x-x-x-x--x-x-x-x----|
+----8--8--8--8-7--7-7-7-7-7--7-7-7-7----|

|----------------------------------------------------------------|
|----------------------------------------------------------------|
|----------------------------------------------------------------|
|---10--10-10-10-10-10--10-10-10-10-9--9-9-9-9-9--9-9-9-9--10----|
|----x---x--x--x--x--x---x--x--x--x-x--x-x-x-x-x--x-x-x-x---x----|
|----8---8--8--8--8--8---8--8--8--8-7--7-7-7-7-7--7-7-7-7---8----|

outro
(solo)
|----------------------------------------------------|
|----------------------------------------------------|
|----------------------------------------------------|
|----/10--7------------------------------------------|
|-----------8-8/10-7---------8----10-7---7-7/8-------|
|--------------------8-8/10~---10------8-------10~---|

(acoustic)
|-----------------------------------------------------------------------------|
|-----------------------------------------6--6-----6-------6--6-----6---------|
|----7--7-----7--------9---9------9-------7--7-----7-------7--7-----7---------|
|----8--8-----8-------10--10-----10-------7--7-----7-------7--7-----7---------|   6x
|----8--8-----8-------10--10-----10-------5--5--5--5--x-x--5--5--5--5--x-x----|
|----6--6--6--6--x-x---8---8--8---8--x-x--------------------------------------|
Suggest correction
Give kudos to tab author, rate the tab!
1 2 3 4 5
comments
print report bad tab
guest
You may want to rate the tab now too:
select rating
Please do not post tabs as comments. Select "correction" instead!