Oops, an error
Loading. Please wait.

Three Hours Back Bass Tab

version 1
version 1

Whole song

Interactive

1,208 views 1 this week
no commentswrite comment
1 2 3 4 5
x 3
add to favorites
launch autoscroll
font size
0
reset
guitar tuner
Autoscroll
slow
fast
+/-
esc
set tempo
stop
Help us to improve Ultimate-Guitar.com Take our survey!
×
Author
Difficulty
intermediate
THREE HOURS BACK

Tuning:Dropped D

intro
|----|
|----|
|-2~-|
|----|

intro/chorus
|--------------------------|x2
|--------------------------|
|--------------------------|
|-44--22--0000000000000000-|

|----------------------------------|x2
|----------------------------------|
|----------------------------------|
|-44444444222222220000000000000000-|

verse
|-----------------------------------------------------------------|x4
|-4-44-44-4-44-44-4-44-44-4-44-44-0-00-00-0-00-00-0-00-00-0-00-00-|
|-----------------------------------------------------------------|
|-----------------------------------------------------------------|

pre-chorus
|------2--|x4
|-4-44--4-|=========================\
|---------|==========================\
|---------|========================== x2
           ==========================/
|-----------------------------------|
|-000000000000000000000000000000000-|
|-----------------------------------|
|-----------------------------------|

chorus
|--------------------------|x2
|--------------------------|
|--------------------------|
|-44--22--0000000000000000-|

|----------------------------------|x2
|----------------------------------|
|----------------------------------|
|-44444444222222220000000000000000-|

verse 2
|-----------------------|x9 or 10
|-----2-2---------------|
|---0-------0-4h5p4-0-0-|
|-4-------4----------4--|

pre-brigde
|-----------------------|x4
|-----2-2---------------|
|---0-------0-4h5p4-0-0-|
|-4-------4----------4--|

bridge
|-----------------------------------------------------------------|
|-----------------------------------------------------------------|
|-----------------------------------------------------------------|
|-4-44-40-4-44-40-4-44-40-4-44-40-0-00-00-0-00-00-0-00-00-0-00-00-|

pre-chorus
|------2--|x4
|-4-44--4-|=========================\
|---------|==========================\
|---------|========================== x2
           ==========================/
|-----------------------------------|
|-000000000000000000000000000000000-|
|-----------------------------------|
|-----------------------------------|

chorus
|--------------------------|x2
|--------------------------|
|--------------------------|
|-44--22--0000000000000000-|

|----------------------------------|x2
|----------------------------------|
|----------------------------------|
|-44444444222222220000000000000000-|
===================================================================================
Suggest correction
Give kudos to tab author, rate the tab!
1 2 3 4 5
comments
print report bad tab
guest
You may want to rate the tab now too:
select rating
Wanna post a correction for this tab? Suggest correction