Oops, an error
Loading. Please wait.

Three Hours Back Tab

version 1
version 1

Intro

Whole song

Interactive

3,824 views 3 this week
8 commentsread comments
1 2 3 4 5
x 6
add to favorites
launch autoscroll
font size
0
reset
how to read this tab
guitar tuner
Autoscroll
slow
fast
+/-
esc
set tempo
stop
Help us to improve Ultimate-Guitar.com Take our survey!
×
Author
Tuning
D A D G B E
-------------------------------------------------------------------------------
                    Three Hours Back- Silverstein
-------------------------------------------------------------------------------
Tabbed by: Cullan S.
Email: releitnk_x@yahoo.com
Myspace Me: www.myspace.com/imawhiteguy
Tuning:Drop D

Intro

Guitar 1
e|---------------------------0-----0-----------------|
B|------2--------2-------3-----3-----3---2p0---0-----|
G|----2--2---2-----2-------2-----2-----2-----2-------|
D|-2h4----4p2--2-----2p0-----------------------------|
A|---------------------------------------------------|
D|---------------------------------------------------|

e|---------------------------------------------------|
B|------2---------2------0~--------------------------|
G|----2--2----2-----2----2~--(2)---(2)---(2)---------|
D|-2h4----4p2---2-----2--1~----(1)---(1)-------------|
A|-------------------------(faded in the backround)--|
D|---------------------------------------------------|

-end
Suggest correction
comments
print report bad tab
8 comments total. Showing first comments.
0 reply
hasteTheDay118 140 May 29, 2006 10:31 PM

good tab better than the other one. this one is underated.

0 reply
jid_6062 87 Jul 17, 2006 04:52 PM

great!
for the riff I found this:

e|------------------------------------------------------------|
B|------------------------------------------------------------|
G|------------------------------------------------------------|
D|--4---22--000000--------------------------------------------|
A|--4---22--000000--------------------------------------------|
D|--4---22--000000--------------------------------------------|

0 reply
sumdude100 72 Sep 07, 2006 07:03 PM

hey, im doing the whole song and im gonna use ur intro k?

guest
You may want to rate the tab now too:
select rating
Wanna post a correction for this tab? Suggest correction