Oops, an error
Loading. Please wait.

Three Hours Back Bass Tab

version 2
version 2

Whole song

Interactive

1,067 views 3 this week
4 commentsread comments
1 2 3 4 5
1 last vote to show rating
add to favorites
launch autoscroll
font size
0
reset
guitar tuner
Autoscroll
slow
fast
+/-
esc
set tempo
stop
Help us to improve Ultimate-Guitar.com Take our survey!
×
Author
Difficulty
novice
Tuning: Standard

Intro
|-----|
|5~---|
|-----|
|-----|

|------------------------------------|
|------------------------------------|
|-99x--77x--5555555555555555---------|
|------------------------------------| x2

|-----------------------------------|
|-----------------------------------|
|-999999-77777777-55555555555555555-|
|-----------------------------------| x2

Verse
|---------------------------------------|
|---------------------------------------|
|-9-99x-9-99x-(x4)-5-55x-5-55x-(x4)-----|
|---------------------------------------|

|---------------------------------------|
|---------------------------------------|
|-9-99x-9-99x-(x4)-55555555555555555----|
|---------------------------------------|

{Pre-Chorus
|---------------------------------|
|-----7---------------------------|
|9-99--9-(x4)-5555555555555555----|
|---------------------------------| x2

Chorus
|-------------------------------------|
|-------------------------------------|
|-99x--77x--55555555555555555---------|
|-------------------------------------| x2

|----------------------------------|
|----------------------------------|
|-999999-77777777-55555555555555555|
|----------------------------------| x2

Bridge
|-------9~-------------6h7p6----------|
|----7---------7-----7----------------|
|-5---------------5-----------9-7h9---|
|-------------------------------------| x12

Pre-Chorus
|---------------------------------------|
|---------------------------------------|
|-9-99x-9-99x-(x4)-5-55x-5-55x-(x4)-----|
|---------------------------------------|

|-------------------------------------------------7777777-|
|---------------------------------------------------------|
|-9-99x-9-99x-(x4)-5-55x-5-55x-(x2)-5-55x-5-55x-5---------|
|---------------------------------------------------------|

Chorus
|-------------------------------------|
|-------------------------------------|
|-99x--77x--55555555555555555---------|
|-------------------------------------| x2

|-----------------------------------|
|-----------------------------------|
|-999999-77777777-55555555555555555-|
|-----------------------------------| 

Outro
|----------------------------------|
|----------------------------------|
|-999999-77777777-5~---------------|
|----------------------------------|
Suggest correction
Give kudos to tab author, rate the tab!
1 2 3 4 5
comments
print report bad tab
4 comments total. Showing first comments.
0 reply
fret13 1,031 Dec 21, 2006 08:20 AM

listen, and i mean this in the nicest way possible so dont get a bad impression about me but this is played in dropped d and my version 1 is already 100%. please dont take this the wrong way but this isnt right.

0 reply
carrotcake 1,997 Jun 23, 2007 04:10 PM

mine just has octaves and a different bridge compared to yours, geez

0 reply
xxbobsfolderxx 30 Sep 14, 2009 04:34 PM

your bridge is definitely closer than the other tab but it's still off a little bit
Bridge
|-------9~-------------6h7p6----------|
|----7---------7-----4-------(4-2h4)--|
|-5---------------2-----------9-7h9---|
|-------------------------------------|

guest
You may want to rate the tab now too:
select rating
Wanna post a correction for this tab? Suggest correction