Oops, an error
Loading. Please wait.

Three Hours Back Tab

version 2
version 2

Whole song

Interactive

9,697 views 6 this week
3 commentsread comments
1 2 3 4 5
excellent!
x 8
add to favorites
launch autoscroll
font size
0
reset
how to read this tab
guitar tuner
Autoscroll
slow
fast
+/-
esc
set tempo
stop
Help us to improve Ultimate-Guitar.com Take our survey!
×
Contributor
Difficulty
Tuning
intermediate
D A D G B E
Artist: Silverstein
Album: Discovering The Waterfront
Song: 10. Three Hours Back
Tuning: Drop-D

Tabbed By: Alden Schulte - 1/18/07


Intro

E|-----------------------------------0------0-----------------|
B|-------2--------------2--------3------3------3--------------|
G|-----2-----2------2------2--------2------2------2--6p4---4~-|
D|-2p4---------4--2---2------2--0------------------------7----|
A|------------------------------------------------------------|
D|------------------------------------------------------------|


 |-----------------------------------------------------|
 |-------2--------------2-------0~---------------------|
 |-----2-----2------2------2----2~----2---2---2-----2--|
 |-2p4---------4--2---2------2--1~--1---1---1-----0----|
 |----------------------------------------------2------|
 |-----------------------------------------------------|

   chorus-guitar 1
                                     1st ending
 |---------------------------------|----------------------|
 |-2h3p2-------2h3p2-------2h3p2---|----------------------|
 |-------2-----------2-----------2-|----------------------|
 |---------4-4---------2-2---------|-0-000-2222-4444-6976-|
 |---------------------------------|----------------------|
 |---------------------------------|----------------------|

  4th time ending does this

 |----------------------|
 |----------------------|
 |----------------------|
 |-0-000-2222-4-4444444-|
 |----------------------|
 |----------------------|

  chorus-guitar 2
    
    first two times             
 |---------------------------|
 |---------------------------|
 |---------------------------|
 |-4---2---0-000000000000000-|
 |-4---2---0-000000000000000-|
 |-4---2---0-000000000000000-|

   last two times
 |-------------------------------|
 |-------------------------------|
 |-------------------------------|
 |-4-444-2-222-0-000000000000000-|
 |-4-444-2-222-0-000000000000000-|
 |-4-444-2-222-0-000000000000000-|


    Verse-both guitars

 |----------------------------------------------------------|
 |----------------------------------------------------------|
 |-9-9-99-9-9-99-9-9-99-9-9-99--7-7-77-6-6-66-7-7-77-9-9-99-|
 |-7-7-77-7-7-77-7-7-77-7-7-77--7-7-77-7-7-77-7-7-77-x-x-xx-|
 |-9-9-99-9-9-99-9-9-99-9-9-99--5-5-55-4-4-44-5-5-55-7-7-77-|
 |-----------------------------(0)--------------------------|


 |----------------------------------------------------------|
 |----------------------------------------------------------|
 |-9-9-99-9-9-99-9-9-99-9-9-99--7-7-77-6-6-66-7-7-77-6-6-66-|
 |-7-7-77-7-7-77-7-7-77-7-7-77--7-7-77-7-7-77-7-7-77-7-7-77-|
 |-9-9-99-9-9-99-9-9-99-9-9-99--5-5-55-4-4-44-5-5-55-4-4-44-|
 |-----------------------------(0)--------------------------|


 |--------------------------------------------------------------|
 |-----55-----55-----55-----55----------------------------------|
 |-2x2----2x2----2x2----2x2-----7-77-77-6-66-66-7-77-77-9-99-99-|
 |-4x4----4x4----4x4----4x4-----x-xx-xx-x-xx-xx-x-xx-xx-x-xx-xx-|
 |------------------------------5-55-55-4-44-44-5-55-55-7-77-77-|
 |------------------------------0-00-00-0-00-00-0-00-00-0-00-00-|


 |--------------------------------------------------------------|
 |-----55-----55-----55-----55----------------------------------|
 |-2x2----2x2----2x2----2x2-----7-77-77-6-66-66-7-77-77-6-66-66-|
 |-4x4----4x4----4x4----4x4-----x-xx-xx-x-xx-xx-x-xx-xx-x-xx-xx-|
 |------------------------------5-55-55-4-44-44-5-55-55-4-44-44-|
 |------------------------------0-00-00-0-00-00-0-00-00-0-00-00-|

 -------
 Chorus
 --------

 slow part-goes with base, right before singing
   (let ring)
 |---------------------------------------------------------|
 |---------------------------------------------------------|
 |-9-----9/4-----4/9-----9/11----------------------(slide)-|
 |-x-----x/x-----x/x-----x/x--------(Base part)----2/------|
 |-7-----7/2-----2/7-----7/9-----------------------2/------|
 |-------------------------------------------------2/------|

   Build-up
 |
 | don't have it perfect yet, will post when i got it.
 |
 |
 |
 |

  
   Break Down-both guitars
 |------------------------------------------------------------------|
 |------------------------------------------------------------------|
 |------------------------------------------------------------------|
 |--4-44-44-4-44-44-4-44-44-4-44-44-7-77-77-7-77-77-7-77-77-7-77-77-|
 |--4-44-44-4-44-44-4-44-44-4-44-44-5-55-55-4-44-44-5-55-55-4-44-44-|
 |--4-44-44-4-44-44-4-44-44-4-44-44---------------------------------|
pm* * ** ** * ** ** * ** ** * ** ** * ** ** * ** ** * ** ** * ** ** 


 |------------------------------------------------------|
 |------------------------------------------------------|
 |------------------------------------------------------|
 |--202-4-44-44-4-44-44-4-44-44-4-44-44-7-77-77-7-77-77-|
 |--202-4-44-44-4-44-44-4-44-44-4-44-44-5-55-55-4-44-44-|
 |--202-4-44-44-4-44-44-4-44-44-4-44-44-----------------|
pm* *** * ** ** * ** ** * ** ** * ** ** * ** ** * ** ** 


 |----------------------------|
 |----------------------------|
 |1414-131313-16-16161616-14~-|
 |-x-x--x-x-x--x--x-x-x-x--x--|
 |1212-111111-14-14141414-12~-|
 |----------------------------|

 -------
 Chorus
 ---------

 ending note after last chorus
   let ring
 |-0-----|
 |-3-----|
 |-2-----|
 |-0-----|
 |-0-----|
 |-0-----|
-----------------------------------------------------------

 Lyrics
 ---------

 Let's go!

  Indifference grows, indifference feeds on me
    A sickness fills the pathways where I breathe
     Miles away from where I want to be, want to be

  One day you will see!
  Nothing is this simple, this simple
  One day you will see!
  It takes its toll on me, toll on me

      Hey! Lie awake and wait out all those
       Days! Till I finally come home
        Changed and jaded, everything that I hate
      I'll be there...

        Trading in my youth, for broken wings
     As I slowly watch you
  Walk away, so walk away
Will you stay, will you stay, will you walk away?

  Fall asleep to flashing screens and paper cuts, yeah
    Waking up with vacant eyes and broken hearts again

   One day you will see!
  (One day you will see!)
   Nothing is this simple, this simple
   One day you will see!
  (One day you will see!)
   It takes its toll on me, toll on me

 Hey! Lie awake and wait out all those
  Days! Till I finally come home
   Changed and jaded, everything that I hate
    I'll be there...
 ---------------------------------------

 there it is, a great silvertein song. hope you enjoyed!
comments
print report bad tab
3 comments total.
0 reply
mymagicalguitar 51 wrote on June 17 2008, 10:51 am

the chorus endings are confusing the way they are set up.

0 reply
mymagicalguitar 51 wrote on June 17 2008, 11:11 am

what is the guitar part for this part?

As I slowly watch you
Walk away, so walk away
Will you stay, will you stay, will you walk away?

Fall asleep to flashing screens and paper cuts, yeah
Waking up with vacant eyes and broken hearts again

0 reply
Metallica rulz 866 wrote on October 20 2008, 10:09 pm

You called a Bass... Base..boo to you. Good tab though.

I want to post or [tab]
guest
You may want to rate the tab now too:
select rating
Please do not post tabs as comments. Select "correction" instead!