Oops, an error
Loading. Please wait.

True Romance bass

3,044 views 1 this week
6 commentsread comments
1 2 3 4 5
2 more votes to show rating
add to favorites
×
Save as Personal and add changes to this tab that will be seen only by you. Learn more ›
×
You can save this tab as Personal to edit and correct it or add notes. All changes will be seen only by you. Learn more »
launch autoscroll
font size
0
reset
guitar tuner
edit
Autoscroll
slow
fast
+/-
esc
set tempo
stop
Author
+++++++++++++++++++++++++++++
| Silverstein- True Romance |
+++++++++++++++++++++++++++++

Tuning: EADG

I think this is a good song, despite the fact
that the chorus is played like a million times!
During this song you can do Hammer ons, Pull offs and slides
as you like
I just wrote down all the notes and the frets the way I play it
bye

Intro
1.
G|---------------------------------------------------|
D|---------------------------------------------------|
A|-6~----4~h6-8-6~----4~h6-8-9~----9~----8~----8~--8-|--x2
E|---------------------------------------------------|

Verse
"Im not here to judge you..."
2.
G|-----------------------------------------|
D|-----------------------------------------|
A|-6~--------2~--------6~--------4~--------|
E|-----------------------------------------|

"Beautiful girl..."
3.
G|-------------------------------------------------|
D|-------------------------------------------------|
A|-------2~----------------------2~----------------|--x2
E|-4~----------2~----1-2-2-4~----------2~----1-2-2-|

*Really softly!
4.
G|-------------------------|
D|-------------------------|
A|-------2~----------------|--x4
E|-4~----------2~----1~----|

Chorus
"I may not always be perfect..."
5.
G|--------------------------------------------------------------|
D|--------------------------------------------------------------|
A|-6~-66~--4~-6~-8~-6~-66~--4~-6~-8~-9~-99-9~-99-8~-88\4~-6~-8~-|--x2
E|--------------------------------------------------------------|

Verse
"Husband cant bear..."
6.
G|-------------------------------------------------|
D|-------------------------------------------------|
A|-------2~----------------------2~----------------|--x2
E|-4~----------2~----1-2-2-4~----------2~----1-2-2-|

7.
G|-------------------------|
D|-------------------------|
A|-------2~----------------|--x4
E|-4~----------2~----1~----|

Chorus
"I may not always be perfect..."
8.
G|--------------------------------------------------------------|
D|--------------------------------------------------------------|
A|-6~-66~--4~-6~-8~-6~-66~--4~-6~-8~-9~-99-9~-99-8~-88\4~-6~-8~-|--x2
E|--------------------------------------------------------------|

Bridge
9.
G|--------------------------------------------------------|
D|--------------------------------------------------------|
A|-111-2~----111-2~-2444444-111-2~----111-2~-4444x-444444-|--x3
E|--------------------------------------------------------|

10.
G|---------------------------------------------------------------------|
D|---------------------------------------------------------------------|
A|-111-2~----111-2~-2444444-111-2~----111-2~-4444x-444444-4444x-444444-|
E|---------------------------------------------------------------------|

11.
G|---------------------------------------------------|
D|---------------------------------------------------|
A|-6~----4~h6-8-6~----4~h6-8-9~----9~----8~----8~--8-|--x2
E|---------------------------------------------------|

Chorus
"I may not always be perfect..."
12.
G|--------------------------------------------------------------|
D|--------------------------------------------------------------|
A|-6~-66~--4~-6~-8~-6~-66~--4~-6~-8~-9~-99-9~-99-8~-88\4~-6~-8~-|--x8
E|--------------------------------------------------------------|

Outro
"Beautiful girl..."
13.
G|-------------------------------------------------|
D|-------------------------------------------------|
A|-------2~----------------------2~----------------|
E|-4~----------2~----1-2-2-4~----------2~----1-2-2-|

14.
G|-------------------------------------------|
D|-------------------------------------------|
A|-------2~----------------------2~----------|
E|-4~----------2~----1-2-2-4~----------2~----|

Lyrics:

I'm not here to judge you,
I'm just here to tell you what you have done wrong.
Beautiful girl looking her best, takes off a towel,
Puts on a dress.
Fixes her hair to look good for someone.
Waits in a car to go to a motel.
...to a motel.

I may not always be perfect.
But I'll always try.
Will you say your prayers, just to be honest with yourself?
Will you save your soul? Is this what you wanted all along?

Husband can't bear to just lie to himself.
Stock market falls and he loses it all,
He sleeps alone for the third time this week.
He's become numb, he just wants this to be.

Blood on the floor.
What have you done?
Heart in your hands.
What have you done?

Beautiful girl sleeps by herself.
Half the bed's cold, she knows it's her fault.
She's given in and admitted defeat.
She'll be fine.

+++++++++++++++++++++++++++++++++
| RaiLeff                       |
| Underground__Dora@Hotmail.Com |
+++++++++++++++++++++++++++++++++

            
            
Suggest correction
Creating personal tab
Creating personal tab
You can edit any tab online and save it as your Personal.

You can edit, replace or remove any tab part or add personal notes – all changes will be seen only by you.

Personal tabs can be accessed anytime from any device, even offline.
Learn more »
Give kudos to tab author, rate the tab!
1 2 3 4 5
comments
print report bad tab
6 comments total. Showing first comments.
0 reply
carrotcake 2,007 Jul 04, 2007 09:40 AM

man, I wish I could play the songs on this album, but I'm outta state without my bass so, I can't :(

0 reply
RaiLeff 12,922 Jul 04, 2007 10:16 AM

Aww, vacations?
My folks never let me take my bass with me lol
I suffer lots
:'(

0 reply
carrotcake 2,007 Jul 04, 2007 09:16 PM

yeah, I haven't played in like 2 weeks, I'm gonna suck so much from not playing when I get back lol

guest
You may want to rate the tab now too:
select rating
Wanna post a correction for this tab? Suggest correction