Oops, an error
Loading. Please wait.

True Romance Tab

version 1
version 1

Solo

Whole song

8,802 views 1 this week
2 commentsread comments
1 2 3 4 5
accurate
x 5
add to favorites
launch autoscroll
font size
0
reset
how to read this tab
guitar tuner
Autoscroll
slow
fast
+/-
esc
set tempo
stop
Help us to improve Ultimate-Guitar.com Take our survey!
×
Difficulty
intermediate
-------------------------------------------------------------------------------
                             TRUE ROMANCE - Silverstein
-------------------------------------------------------------------------------
Tabbed by: Nevermoure106
Email: darkshadows106@aol.com

Tuning:Standard

I think this solo I tabbed is flawless.  If you have any suggestions or comments, you're 
to email me at darkshadows106@aol.com.

Solo:
e|------------------------------11-------------11------------11--------------|
B|-4----6-----7-----9------11------14p11--11------14p11-11------14p11--14^16-|
G|-6^8--8^10--9^11--11^13--13^15----------13^15---------13^15----------------|
D|---------------------------------------------------------------------------|
A|---------------------------------------------------------------------------|
E|---------------------------------------------------------------------------|

e|---------------------------------------------------------------------------|
B|---------------------------------------------------------------------------|
G|---------------------------------------------------------------10-10-10----|
D|-------------------------------------------11-11-11--13-13-13--------------|
A|-----------------------11-11-11--13-13-13----------------------------------|
E|--11-11-11---14-14-14------------------------------------------------------|

e|----------------------------------------13-13-13---16^18---16^18---16^18---|
B|---------------------11-11-11--14-14-14------------------------------------|
G|-11-11-11--13-13-13--------------------------------------------------------|
D|---------------------------------------------------------------------------|
A|---------------------------------------------------------------------------|
E|---------------------------------------------------------------------------|

e|-16^18---16^18---16^18--16--16^18-18-16r---11-----13-----14-----16---------|
B|-------------------------------------------14^16--16^18--17^19--19^21------|
G|---------------------------------------------------------------------------|
D|--------------------------------------------2x----2x-------2x-----2x-------|
A|---------------------------------------------------------------------------|
E|---------------------------------------------------------------------------|

e|-21^23--21^23--21^23--21^23--21^23--21^23-21-18-------18--21-21^23---------|
B|------------------------------------------------21-19----------------------|
G|---------------------------------------------------------------------------|
D|---------------------------------------------------------------------------|
A|---------------------------------------------------------------------------|
E|---------------------------------------------------------------------------|


| /  slide up
| \  slide down
| h  hammer-on
| p  pull-off
| ~  vibrato
| +  harmonic
| x  Mute note
| ^  bend upward
| r  return from bend
===============
Suggest correction
comments
print report bad tab
2 comments total.
0 reply
xKnifekillerx 383 wrote on January 23 2009, 10:31 pm

blah, not to bad i guess. some places was wrong. but 4star.

-1 reply
PagudpudRocker 144 wrote on July 21 2009, 06:23 am

yah, well atleast it will make a good start. . .
5 stars. .

guest
You may want to rate the tab now too:
select rating
Wanna post a correction for this tab? Suggest correction