Oops, an error
Loading. Please wait.

True Romance Tab

version 1
version 1

Whole song

29,279 views 3 this week
7 commentsread comments
1 2 3 4 5
accurate
x 9
add to favorites
launch autoscroll
font size
0
reset
how to read this tab
guitar tuner
Autoscroll
slow
fast
+/-
esc
set tempo
stop
Help us to improve Ultimate-Guitar.com Take our survey!
×
Contributor
Difficulty
novice
This is my first tab i actually sent in, this song is very simple, so you guys shouldnt 
a problem with it!
thanks! -Stelios

Tuning: Standard.


Intro. (finger pick this!)
|------------------------------------------------|
|--7~--6/7/9--7~--6/7-9--11--12--11--9/11-9--7~--| x2
|------------------------------------------------|
|--4~--3/4/6--4~--3/4-6--8---9---8---6/8--6--4~--|
|------------------------------------------------|
|------------------------------------------------|
"I'm not here to judge you...I'm just here to tell you..."


Verse.
|-----4444444-----2222222----|
|-----4444444-----2222222----| x4
|-----4444444-----3333333----|
|---6-6666666---4-4444444----|
|---6-6666666---4-4444444----|
|---4-4444444---2-2222222----|
"Beautiful girl..."

Pre-Chorus.
|---6---------------6----------|---6---9---9--6---6----------|
|-7---7--9/11--9--7---7--6\4-6-|-7---7---7------7---6--4--6--| x2
|------------------------------|-----------------------------|
|------------------------------|-----------------------------|
|------------------------------|-----------------------------|
|------------------------------|-----------------------------|
"To a motel..."


(i will figure the rest out later, chorus is eh, and solo is EHHH!)
PLEASE RATE! im pretty sure its 99%! Thanks!
Suggest correction What's this?
You can suggest a correction to this tab. Community and Mods will review your correction and vote to approve or reject it.
comments
print report bad tab
7 comments total. Showing first comments.
+2 reply
guitarmoron 30 wrote on August 28 2007, 03:37 pm

i have just one coment... shouldn't the intro go something like this?

e|-3---2-3/5-3---2-3/5-7--8--7--5/7/5-
B|------------------------------------
G|------------------------------------
D|-2---0-2/4-2---0-2/4-5--5--5--4/5/4-
A|------------------------------------
E|------------------------------------

e|-3---2-3/5-3---2-3/5-7--8--7--5/7/5-
B|------------------------------------
G|------------------------------------
D|-2---0-2/4-2---0-2/4-5--7--0--4/5/4-
A|------------------------------------
E|------------------------------------

kudos on getting it somewhat right on your first try... keep tabing man...

-1 reply
bebe17 151 wrote on March 17 2008, 04:09 pm

^yes guitarmoron that is exactly right

+1 reply
PagudpudRocker 410 wrote on July 21 2009, 06:10 am

No, both of you are wrong,
it must be like this. . .

|-----|-----4-|-----|-----4-|-6--7-|-6--4/6-4-|
|-7---|-6/7---|-7---|-6/7---|------|----------|
|-----|-------|-----|-------|------|----------|
|-----|-------|-----|-------|-4--4-|-3--3-----|
|-6---|-4-----|-6---|-4-----|------|----------|
|-----|-------|-----|-------|------|----------|

|-----|-----4-|-----|-----4-|-6--7-|-6--4/6-4-|
|-7---|-6/7---|-7---|-6/7---|------|----------|
|-----|-------|-----|-------|-4--4-|-3--3-----|
|-----|-------|-----|-------|------|----------|
|-6---|-4-----|-6---|-4-----|------|----------|
|-----|-------|-----|-------|------|----------|

anyway, it's only a correction . . .

I want to post or [tab]
guest
You may want to rate the tab now too:
select rating
Please do not post tabs as comments. Select "correction" instead!