Oops, an error
Loading. Please wait.

Vanity And Greed Bass Tab

488 views 1 this week
no commentswrite comment
1 2 3 4 5
please rate
add to favorites
launch autoscroll
font size
0
reset
guitar tuner
Tab Pro tools
  • play this tab
  • loop segment
  • change instrument
  • show fretboard
  • metronome
×
Best way to learn
"Vanity And Greed"
Autoscroll
slow
fast
+/-
esc
set tempo
stop
Contributor
Tuning
D A D G B E
+++++++++++++++++++++++++++++++++
| Silverstein- Vanity And Greed |
+++++++++++++++++++++++++++++++++

Tuning: Drop D (DADG)

Verse
"Dont say you dont miss me yet..."
1.
G|------------------------------------------------------------|
D|------------------------------------------------------------|
A|-111-1~-111-111-1~-111-111-1~-111-----------------------0-0-|--x2
D|----------------------------------444-4~-444-444-4~-444-----|

"Im taking back my choices..."
2.
G|-------------------------------|
D|-------------------------------|
A|-------------------------------|
D|-44444x-444x----44444x-444x----|

"Ive seen the bravest lions shy away..."
3.
G|------------------------------------------------------------|
D|------------------------------------------------------------|
A|-111-1~-111-111-1~-111-111-1~-111-----------------------0-0-|
D|----------------------------------444-4~-444-444-4~-444-----|

4.
G|------------------------------------------------------------|
D|------------------------------------------------------------|
A|-111-1~-111-111-1~-111-111-1~-111--------444-444-4~-444-0-0-|
D|----------------------------------444-4~--------------------|

Pre-Chorus
"Dont let me take us now..."
5.
G|--------------|
D|--------------|
A|-11111111-1~x-|
D|--------------|

Chorus
"Dont say goodnight..."
6.
G|-------------------------------------------------------------------------|
D|-------------------------------------------------------------------------|
A|-------------------------------------------------------------------------|
D|-44444444-44444444-44444444-33333333-11111111-11111111-11111111-11111111-|

7.
G|-------------------------------------------------------------------------|
D|-------------------------------------------------------------------------|
A|-22222222-22222222-11111111-11111111-22222222-22222222-44444444-55555555-|
D|-------------------------------------------------------------------------|

Verse
"Ill sell you every ounce of honesty..."
8.
G|------------------------------------------------------------|
D|------------------------------------------------------------|
A|-111-1~-111-111-1~-111-111-1~-111-----------------------0-0-|
D|----------------------------------444-4~-444-444-4~-444-----|

9.
G|------------------------------------------------------------|
D|------------------------------------------------------------|
A|-111-1~-111-111-1~-111-111-1~-111--------444-444-4~-444-0-0-|
D|----------------------------------444-4~--------------------|

10.
G|-------------------------------|
D|-------------------------------|
A|-------------------------------|
D|-44444x-444x----44444x-444x----|

Chorus
"Dont say goodnight..."
11.
G|-------------------------------------------------------------------------|
D|-------------------------------------------------------------------------|
A|-------------------------------------------------------------------------|
D|-44444444-44444444-44444444-33333333-11111111-11111111-11111111-11111111-|

12.
G|-------------------------------------------------------------------------|
D|-------------------------------------------------------------------------|
A|-22222222-22222222-11111111-11111111-22222222-22222222-44444444-55555555-|
D|-------------------------------------------------------------------------|

Bridge
"Here's my advice..."
13.
G|--------------------------------------|
D|--------------------------------------|
A|-66666666\4444/6666\22222222-22222222-|--x4
D|--------------------------------------|

14.
G|------------------------------------|
D|------------------------------------|
A|-6~-------4~---6~---22222222-44444x-|
D|------------------------------------|

Chorus
"Dont say goodnight..."
15.
G|-------------------------------------------------------------------------|
D|-------------------------------------------------------------------------|
A|-------------------------------------------------------------------------|
D|-44444444-44444444-44444444-33333333-11111111-11111111-11111111-11111111-|

16.
G|-------------------------------------------------------------------------|
D|-------------------------------------------------------------------------|
A|-22222222-22222222-11111111-11111111-22222222-22222222-44444444-5555xxxx-|
D|-------------------------------------------------------------------------|

"Dont say goodnight..."
17.
G|-------------------------------------------------------------------------|
D|-------------------------------------------------------------------------|
A|-66666666-66666666-66666666-55555555-33333333-33333333-33333333-33333333-|
D|-------------------------------------------------------------------------|

18.
G|-------------------------------------------------------------------------|
D|-------------------------------------------------------------------------|
A|-------------------------------------------------------11111111-22222222-|
D|-66666666-66666666-55555555-55555555-66666666-66666666-------------------|

Outro
"Im taking back my choices..."
19
G|-------------------------------|
D|-------------------------------|
A|-------------------------------|--x2
D|-44444x-444x----44444x-444x----|

20.
G|--------------------|
D|--------------------|
A|----------1~--------|
D|-4~-4~-4~-----------|

Lyrics:

Don't say you don't miss me yet
I must concede
There's something I have to explain
It isn't easy playing your way
I can't even begin to say

I'm taking back my choices
I'm gonna take us down

I've seen the bravest lions shy away
I've seen the tallest tress fall down
I've made a hobby of self-deprecating
my honesty and my integrity

Don't let me take us now

Don't say goodnight, Say goodbye
You can't mend us now
You can't fix a shattered heart
Don't even try

I'll sell you every ounce of honesty
you'll buy it all and lie with me
I can't pretend there's any truth to me
It's all just vanity and greed

Let me take and call you a crier
I'm gonna need it more

Here's my advice if you know what's good for you
Don't let your guard down, don't let your guard down

Don't let me drag you down

I'm taking back my choices
I'm gonna drag us down
Let me take and call you a crier
I'm gonna need it more

+++++++++++++++++++++++++++++++++
| RaiLeff                       |
| Underground__Dora@Hotmail.Com |
+++++++++++++++++++++++++++++++++
comments
We did not receive enough feedback on this tab! Please rate:
print report bad tab
1 2 3 4 5
I want to post or [tab]
guest
You may want to rate the tab now too:
select rating
Please do not post tabs as comments. Select "correction" instead!