Oops, an error
Loading. Please wait.

Vices Bass Tab

version 1
version 1

Whole song

Interactive

2,007 views 1 this week
2 commentsread comments
1 2 3 4 5
please rate
add to favorites
launch autoscroll
font size
0
reset
guitar tuner
Autoscroll
slow
fast
+/-
esc
set tempo
stop
Help us to improve Ultimate-Guitar.com Take our survey!
×
Difficulty
Tuning
novice
D A D G B E
-------------------------------------------------------------------------------
Vices - Silverstein
-------------------------------------------------------------------------------

Not Perfect but the main idea if you want it in drop d
Listen to the song for proper strumming and timing. Enjoi

Tabbed By : Anonymous
e-mail:

Tuning: Drop D (D, A, D, G)

Into (Optional):
G|-----------------------------------------------------------------------------|
D|-----------------------------------------------------------------------------|
A|--4~-------------------------------------------------------------------------|
D|-----------------------------------------------------------------------------|

Verse I: (You call him…)
G|---------------------------------------------------------------------------|
D|---------------------------------------------------------------------------|
A|---------------------------------------------------------------------------|
D|--11-11-11-11-11-11-11-11-11-11-11-11-11-11-11--7~-7-7-7-7--9~-9-9-9-9--11~|

G|---------------------------------------------------------------------------|
D|---------------------------------------------------------------------------|
A|---------------------------------------------------------------------------|
D|--11-11-11-11-11-11-11-11-11-11-11-11-11-11-11--7~-7-7-7-7--9~-9-9-9-9--11~|

G|-----------------------------------------------------------------------------|
D|-----------------------------------------------------------------------------|
A|-----------------------------------------------------------------------------|
D|--11-11-11-11-11-11-11-11-11-11-11-11-11-11-11--7~---------9-----------------|

Chorus : (Seven seven with the lime will keep me safe…)
G|------------------------------------------------------------------------------|
D|------------------------------------------------------------------------------|
A|4-4-4-4-4-4-4-----------------------------------------------------------------|
D|------------------2-2-2-2-2-2-2/-9-9-9-9-9-9-9--7-7-7-7-7-7-7--9-9-9-9-9-9-9--|

G|----------------------------------------------------------------------------------|
D|----------------------------------------------------------------------------------|
A|4-4-4-4-4-4-4/-7-7-7-7-7-7-7------------------------------------------------------|
D|-------------------------------------9-9-9-9-9-9-9--7-7-7-7-7-7-7--9-9-9-9-9-9-9--|

Verse 2: (I'm seven deep…)
G|---------------------------------------------------------------------------|
D|---------------------------------------------------------------------------|
A|---------------------------------------------------------------------------|
D|--11-11-11-11-11-11-11-11-11-11-11-11-11-11-11--7~-7-7-7-7--9~-9-9-9-9--11~|

G|---------------------------------------------------------------------------|
D|---------------------------------------------------------------------------|
A|---------------------------------------------------------------------------|
D|--11-11-11-11-11-11-11-11-11-11-11-11-11-11-11--7~-7-7-7-7--9~-9-9-9-9--11~|

G|-----------------------------------------------------------------------------|
D|-----------------------------------------------------------------------------|
A|-----------------------------------------------------------------------------|
D|--11-11-11-11-11-11-11-11-11-11-11-11-11-11-11--7~---------9-----------------|

Chorus : (Seven seven with the lime will keep me safe…)
G|------------------------------------------------------------------------------|
D|------------------------------------------------------------------------------|
A|4-4-4-4-4-4-4-----------------------------------------------------------------|
D|------------------2-2-2-2-2-2-2/-9-9-9-9-9-9-9--7-7-7-7-7-7-7--9-9-9-9-9-9-9--|

G|----------------------------------------------------------------------------------|
D|----------------------------------------------------------------------------------|
A|4-4-4-4-4-4-4/-7-7-7-7-7-7-7------------------------------------------------------|
D|-------------------------------------9-9-9-9-9-9-9--7-7-7-7-7-7-7--9-9-9-9-9-9-9--|

Post Chorus:
G|-----------------------------------------------------------------------------|
D|-----------------------------------------------------------------------------|
A|-----------------------------------------------------------------------------|
D|11~------------11~--------7~-------9~----------------------------------------|

Bridge:
G|---------------------------------------------------------------------------------------------|
D|---------------------------------------------------------------------------------------------|
A|---------------------------------------------------------------------------------------------|
D|11-11-11-11-11-11-11-11-11-11-11-11-11-11-\--7-7-7-7-7-7-7--9-9-9-9-9--11-11-11-11-11-11-11--|

G|-----------------------------------------------------------------------------|
D|-----------------------------------------------------------------------------|
A|-----------------------------------------------------------------------------|
D|11--11--11--11--11--11--11\--7-7-7-7-7-7-7--9-9-9-9-9------------------------|


G|-----------------------------------------------------------------------------|
D|-----------------------------------------------------------------------------|
A|-----------------------------------------------------------------------------|
D|11--11--11--11--11--11--11\--7-7-7-7-7-7-7--9-9-9-9-9------------------------|


Pre Chorus:
G|-----------------------------------------------------------------------------|
D|-----------------------------------------------------------------------------|
A|-----------------------------------------------------------------------------|
D|7~----------------9~---------------------------------------------------------|

Chorus : (Seven seven with the lime will keep me safe…)
G|------------------------------------------------------------------------------|
D|------------------------------------------------------------------------------|
A|4-4-4-4-4-4-4-----------------------------------------------------------------|
D|------------------2-2-2-2-2-2-2/-9-9-9-9-9-9-9--7-7-7-7-7-7-7--9-9-9-9-9-9-9--|

G|-----------------------------------------------------------------------------------|
D|-----------------------------------------------------------------------------------|
A|4-4-4-4-4-4-4/-7-7-7-7-7-7-7-------------------------------------------------------|
D|-------------------------------------9-9-9-9-9-9-9--7-7-7-7-7-7-7--9-9-9-9-9-9-9---|

End on:
G|-----------------------------------------------------------------------------|
D|-----------------------------------------------------------------------------|
A|4~---------------------------------------------------------------------------|
D|-----------------------------------------------------------------------------|
Suggest correction
Give kudos to tab author, rate the tab!
1 2 3 4 5
comments
print report bad tab
2 comments total.
0 reply
PatrickDoesABCs 602 wrote on August 27 2009, 03:23 pm

wrong tuning

0 reply
bass_it_up_7 30 wrote on September 2 2009, 07:38 pm

very very wrong tab. this is actually so disapponting. im gonna re-tab this for everyone that actually wants to play this song on bass.

guest
You may want to rate the tab now too:
select rating
Please do not post tabs as comments. Select "correction" instead!