Oops, an error
Loading. Please wait.

Vices Tab

version 1
version 1

Whole song

Interactive

28,098 views 12 this week
9 commentsread comments
1 2 3 4 5
excellent!
x 7
add to favorites
launch autoscroll
font size
0
reset
how to read this tab
guitar tuner
Autoscroll
slow
fast
+/-
esc
set tempo
stop
Help us to improve Ultimate-Guitar.com Take our survey!
×
Contributor
quAck91 199
Song is played in Drop Db / C#

Rest will be tabbed out soon.


Intro:

Guitar 1:

eb|----------------------------------------------|
Bb|----------------------------------------------|
Gb|----------------------------------------------|
Db|--x-x--0~--8-8--10-10-------------------------|
Ab|--x-x--0~--8-8--10-10-------------------------|
Db|--x-x--0~--8-8--10-10-------------------------|


Guitar 2:

eb|----------------------------------------------|
Bb|-------6--------------------------------------|
Gb|---------7------------------------------------|
Db|--x-x------7~--8-8--10-10---------------------|
Ab|--x-x----------8-8--10-10---------------------|
Db|--x-x----------8-8--10-10---------------------|

Guitar 1&2:

eb|----------------------------------------------|
Bb|----------------------------------------------|
Gb|----------------------------------------------|
Db|--7h8-7h8-0--7h8-0--7h8-7h8-0-7h8-5555--------|
Ab|--7h8-7h8-0--7h8-0--7h8-7h8-0-7h8-5555--------|
Db|--7h8-7h8-0--7h8-0--7h8-7h8-0-7h8-5555--------|


Verse:

eb|---------------------------------------------------------| \
Bb|---------------------------------------------------------|  \ 
Gb|---------------------------------------------------------|   \ 
Db|-0~------------------------------------------------------|    \
Ab|-0~-3--3-5--5-7--7-8--8-10-------------------------------|     \
Db|-0~------------------------------------------------------|      \
                                                                    \do this 
                                                                    /2 times
eb|---------------------------------------------------------|      /
Bb|---------------------------------------------------------|     /
Gb|---------------------------------------------------------|    /
Db|-0~-------------------------8-8---------10-10------------|   /
Ab|-0~-3--3-5--5-7--7-8-10-8-7-8-8-10-8-7--10-10-7-8-10-8-7-|  /
Db|-0~-------------------------8-8---------10-10------------| / 

eb|---------------------------------------------------|
Bb|---------------------------------------------------|
Gb|---------------------------------------------------|
Db|-0~-------------------------8~--7~--10101010101010-|
Ab|-0~-3--3-5--5-7--7-8--8-10--8~--7~--10101010101010-|
Db|-0~-------------------------8~--7~--10101010101010-|


Chorus:

Guitar 1:

eb|----------------------------------------------------| \
Bb|----------------------------------------------------|  \
Gb|----------------------------------------------------|   \
Db|-00000000--33333333--1010101010101010--88888888-----|    \
Ab|-00000000--33333333--1010101010101010--88888888-----|     \
Db|-00000000--33333333--1010101010101010--88888888-----|      \
                                                               | 2 times
eb|----------------------------------------------------|      /
Bb|----------------------------------------------------|     /
Gb|----------------------------------------------------|    /
Db|--3p0--3p0-3h5--------------------------------------|   /
Ab|--3p0--3p0-3h5--------------------------------------|  /
Db|--3p0--3p0-3h5--------------------------------------| /


Guitar 2: whole guitar 2 thing -> 2x

eb|---------------------------------------------------| \
Bb|---------5-6-------5-6-----------------------------|  \
Gb|--7-9-7------7-9-7-----7-9-------------------------|   \ 3 times
Db|---------------------------------------------------|   /
Ab|---------------------------------------------------|  /
Db|---------------------------------------------------| /

eb|---------------------------------------------------|
Bb|--11-10-8----8-------------------------------------|
Gb|----------10---------------------------------------|
Db|----------------3p0-3h5----------------------------|
Ab|----------------3p0-3h5----------------------------|
Db|----------------3p0-3h5----------------------------|


Bridge:

Guitar 1:

eb|---------------------------------------------------|
Bb|---------------------------------------------------|
Gb|---------------------------------------------------|
Db|-0~----x-x--0~--8-8--10-10-------------------------|
Ab|-0~----x-x--0~--8-8--10-10-------------------------|
Db|-0~----x-x--0~--8-8--10-10-------------------------|


Guitar 2:

eb|----------------------------------------------|
Bb|-------6--------------------------------------|
Gb|---------7------------------------------------|
Db|--x-x------7~--8-8--10-10---------------------|
Ab|--x-x----------8-8--10-10---------------------|
Db|--x-x----------8-8--10-10---------------------|



Guitar 1 ( and 2) :

eb|----------------------------------------------| \   3 times, the last time
Bb|----------------------------------------------|  \  play the last chord 1
Gb|----------------------------------------------|   \ time, then start the
Db|--7h8-7h8-0--7h8-0--7h8-7h8-0-7h8-5555--------|   / riff again with guitar
Ab|--7h8-7h8-0--7h8-0--7h8-7h8-0-7h8-5555--------|  /  2
Db|--7h8-7h8-0--7h8-0--7h8-7h8-0-7h8-5555--------| /

eb|---------------------------------------------------|
Bb|---------------------------------------------------|
Gb|---------------------------------------------------|
Db|--8~--7~--10101010101010---------------------------|
Ab|--8~--7~--10101010101010-//////////////////////////|  <- Pickslide
Db|--8~--7~--10101010101010-//////////////////////////|

Guitar 2:

eb|----------------------------------------------|
Bb|--b14--b16--b17--b14--------------------------| all bends are half steps 
Gb|----------------------------------------------| and tremolo picked!
Db|----------------------------------------------|
Ab|----------------------------------------------|
Db|----------------------------------------------|


Song order: Intro
            Verse
            Chorus
            Verse
            Chorus
            Bridge
            Chorus



greetz quAck

for questions: quack91@web.de or quack91 on www.ultimate-guit ar.com
comments
print report bad tab
9 comments total. Showing first comments.
0 reply
playitacoustic 10 wrote on April 29 2009, 09:59 pm

where is the lead in the background of the chorus and the bridge?

0 reply
Emo_Blood 43 wrote on May 12 2009, 05:43 pm

can you do the rest? PUH LEASE?

0 reply
geoffh 115 wrote on May 17 2009, 05:25 pm

ya I agrea with emo blood tab the rest of this awsome song

I want to post or [tab]
guest
You may want to rate the tab now too:
select rating
Please do not post tabs as comments. Select "correction" instead!