Oops, an error
Loading. Please wait.

Vices Bass Tab

version 2
version 2

Whole song

Interactive

2,330 views 1 this week
no commentswrite comment
1 2 3 4 5
2 more votes to show rating
add to favorites
launch autoscroll
font size
0
reset
guitar tuner
Autoscroll
slow
fast
+/-
esc
set tempo
stop
Help us to improve Ultimate-Guitar.com Take our survey!
×
Author
ok. so this is 100% correct. please dont use the first version of this tab, as it is
very wrong.  this is what i play in my band and it lines up perfectly with the recording.

tuning: drop d flat
(Db, Ab, Db, Gb)

intro:

Gb|-----------------------------------------------------------------------|
Db|-----------------------------------------------------------------------|
Ab|-----------------------------------------------------------------------|
Db|-0~(drones to start song, drums start)--0-0-0~------8--8--888--10--10--|

(just guitar and drums for a few seconds)

verse:

Gb|----------------------------------------------------------|
Db|----------------------------------------------------------|x2
Ab|-------------------------------------1--1--111--3--3--333-|
Db|0--00000000000000--0--00000000000000----------------------|


pre-chorus:

Gb|-------------------------------------------|
Db|-------------------------------------------|
Ab|---------------------1~----0~----333333333-|
Db|0--00000000000000--------------------------|


chorus:

Gb|--------------------------------------------------------------------|
Db|--------------------------------------------------------------------|x2
Ab|--------------------------------3-3333333333333-1-111111-3----------|
Db|0-0000000000000-3-3333333333333----------------------------0h3-0-3h5|


bridge:  play intro part once through and then it goes to just guitar and drums for the
run through while liam cormier sings. then second time through bass comes in with

Gb|-----------------------------------------------|
Db|-----------------------------------------------|x2
Ab|-----------------------------------------------|
Db|--7h8--7h8--0--7h8--0--0-7h8--7h8--0--7h8-5555-|

last note is:

Gb|-------------------------------------------------------------|
Db|-------------------------------------------------------------|
Ab|-------------------------------------------------------------|
Db|-0~------------------(fade out with cymbal rolls, whatever)--|


song form:
intro
verse
pre-chorus
chorus
verse
pre-chorus
chorus
bridge
pre-chorus
chorus


in case you've never read tab before:

~ means sustain
h means hammer on
Suggest correction
Give kudos to tab author, rate the tab!
1 2 3 4 5
comments
print report bad tab
guest
You may want to rate the tab now too:
select rating
Wanna post a correction for this tab? Suggest correction