Oops, an error
Loading. Please wait.

Vices Tab

version 2
version 2

Whole song

Interactive

5,049 views 3 this week
3 commentsread comments
1 2 3 4 5
please rate
add to favorites
launch autoscroll
font size
0
reset
how to read this tab
guitar tuner
Autoscroll
slow
fast
+/-
esc
set tempo
stop
Help us to improve Ultimate-Guitar.com Take our survey!
×
Author
Difficulty
Tuning
novice
C# G# C# F# A# D#
----------------------------------------------------------------------------
                             VICES - Silvestein
----------------------------------------------------------------------------
Tabbed by:Alien4ever
Email:alien4ever@hotmail.com

Tuning: Drop Db

Hello everybody, Alien4ever's speaking. Here's a tab of the song Vices by Silverstein
their new album, A Shipwreck In The Sand (great album btw). This tab is pretty much 100 %
The only thing is that I don't have the lead of the chorus. You'll have to find it by 
(sry). I actually think that you have enough stuff in there to have fun with this
great song. And I won't give you the time measures for the note since I guess that if 
are looking at this tab, you know Silverstein and you know that song. Enjoy !

Please rate and comment !

Guitar 1 = Lead
Guitar 2 = Rhythm

---INTRO---

The intro start with the end Db5 of A Great Fire.

Guitar 1 (x1)
e|-------------------------------------------------------------------------|
B|---------------------6---------------------------------------------------|
G|-----------------------7-------------------------------------------------|
D|-0-----------------------7--3---3-3-3-3-3--3--3-3--5--5-5-5-5-5--5-5-5-5-|
A|-0--------------0-0---------1---1-1-1-1-1--1--1-1--3--3-3-3-3-3--3-3-3-3-|
E|-0--------------0-0------------------------------------------------------|
PM                - -             - - - -       - -     - - - -    - - - -

Guitar 2 (x1)
e|-------------------------------------------------------------------------|
B|-------------------------------------------------------------------------|
G|-------------------------------------------------------------------------|
D|-0--------------------0------3--3-3-3-3-3--3--3-3--5--5-5-5-5-5--5-5-5-5-|
A|-0--------------0-0---0------1--1-1-1-1-1--1--1-1--3--3-3-3-3-3--3-3-3-3-|
E|-0--------------0-0---0--------------------------------------------------|
PM                - -             - - - -       - -     - - - -    - - - -


---PRE-VERSE---

Both Guitars (Guitar 1 only for the first time) (x2)
e|------------------------------------------------|
B|------------------------------------------------|
G|------------------------------------------------|
D|--7h8-7h8-0-7h8-0-------7h8-7h8-0-7h8-5-5-5-5---|
A|--7h8-7h8-0-7h8-0-0-00--7h8-7h8-0-7h8-5-5-5-5---|
E|--7h8-7h8-0-7h8-0-0-00--7h8-7h8-0-7h8-5-5-5-5---|
PM                  - --


---VERSE---

Both Guitars (x2) (You can palm mute all the low E string's notes if you want to but it
great even without the PM)
e|-------------------------------------------------------------------------|
B|-------------------------------------------------------------------------|
G|-------------------------------------------------------------------------|
D|---------------------------------------------------------------7---------|
A|--0----5---3h5---7h8---8h10---10h12--0----5---3h5---7h8---8-10---10-8----|
E|--0--0---0-----0-----0------0--------0--0---0-----0-----0----------------|

e|---------------------------------------|
B|---------------------------------------|
G|---------------------------------------|
D|--------------------------7------------|
A|--8--8--10--8-7---7--8-10---10-8-------|
E|--8--8----------8-7--------------------|


---END OF THE VERSE 1--- (when you play that part the second time, guitar 1 does a bend
the 5th fret, 5th string after his 9x7)

Guitar 1
e|-------------------------------------------------------------------------|
B|-------------------------------------------------------------------------|
G|--------------------------------------12----10-----9-9-9-9-9-9-9-9-9-----|
D|--------------------------------------x-----x------x-x-x-x-x-x-x-x-x-----|
A|--0----5---3h5---7h8---8h10---10h12---10----8------7-7-7-7-7-7-7-7-7-----|
E|--0--0---0-----0-----0------0--------------------------------------------|

Guitar 2
e|-------------------------------------------------------------------------|
B|-------------------------------------------------------------------------|
G|-------------------------------------------------------------------------|
D|---------------------------------------8---7---10-10-10-10-10-10-10-10-10|
A|--0----5---3h5---7h8---8h10---10h12----8---7---10-10-10-10-10-10-10-10-10|
E|--0--0---0-----0-----0------0----------8---7---10-10-10-10-10-10-10-10-10|

---CHORUS---

Guitar 2 (x2)
e|--------------------------------------------------|
B|--------------------------------------------------|
G|-------------------5-(x16)--3-(x8)-5--------------|
D|--0-(x16)--3-(x16)-5--------3------5--0-3p0-3h5---|
A|--0--------3-------3--------1------3--0-3p0-3h5---|
E|--0--------3--------------------------0-3p0-3h5---|

---PRE-BRIDGE--- (In fact, this is the intro riff)

Guitar 1
e|-------------------------------------------------------------------------|
B|----------------6--------------------------------------------------------|
G|------------------7------------------------------------------------------|
D|--0-----------------7--3---3-3-3-3-3--3--3-3--5--5-5-5-5-5--5-5-5-5------|
A|--0-------0-0----------1---1-1-1-1-1--1--1-1--3--3-3-3-3-3--3-3-3-3------|
E|--0-------0-0------------------------------------------------------------|
PM          - -              - - - -       - -     - - - -    - - - -

Guitar 2
e|-------------------------------------------------------------------------|
B|-------------------------------------------------------------------------|
G|-------------------------------------------------------------------------|
D|--0-----------0--------3---3-3-3-3-3--3--3-3--5--5-5-5-5-5--5-5-5-5------|
A|--0-------0-0-0--------1---1-1-1-1-1--1--1-1--3--3-3-3-3-3--3-3-3-3------|
E|--0-------0-0-0----------------------------------------------------------|
PM          - -              - - - -       - -     - - - -    - - - -

---BRIDGE (LIAM CORMIER PART)---

Guitar 1 (x2) (Guitar 2 doesn't play right now)
e|------------------------------------------------|
B|------------------------------------------------|
G|------------------------------------------------|
D|--7h8-7h8-0-7h8-0-------7h8-7h8-0-7h8-5-5-5-5---|
A|--7h8-7h8-0-7h8-0-0-00--7h8-7h8-0-7h8-5-5-5-5---|
E|--7h8-7h8-0-7h8-0-0-00--7h8-7h8-0-7h8-5-5-5-5---|
PM                  - --

Then...

Guitar 1 (Solo) (Play one time then switch to the guitar 2 part) (Notes are tremolo
and you need to slide down to the bottom of the neck after each one) (Effect = Overdrive +
and/or phaser)
e|------------------17-----22--|
B|----15-----17----------------|
G|-----------------------------|
D|-----------------------------|
A|-----------------------------|
E|-----------------------------|

Guitar 2 (x4) (Guitar 1 does it 2 times after the solo)
e|------------------------------------------------|
B|------------------------------------------------|
G|------------------------------------------------|
D|--7h8-7h8-0-7h8-0-------7h8-7h8-0-7h8-5-5-5-5---|
A|--7h8-7h8-0-7h8-0-0-00--7h8-7h8-0-7h8-5-5-5-5---|
E|--7h8-7h8-0-7h8-0-0-00--7h8-7h8-0-7h8-5-5-5-5---|
PM                  - --

---END OF THE VERSE 2---

Guitar 1
e|---------------------------------------------------|
B|---------------------------------------------------|
G|--12---10---9-9-9-9-9-9-9-9-9------PICKSLIDE-------|
D|--x----x----x-x-x-x-x-x-x-x-x----------------------|
A|--10---8----7-7-7-7-7-7-7-7-7----------------------|
E|---------------------------------------------------|

Guitar 2
e|----------------------------------------------------|
B|----------------------------------------------------|
G|------------------------------------------PICKSLIDE-|
D|--8----7----10-10-10-10-10-10-10-10-10--------------|
A|--8----7----10-10-10-10-10-10-10-10-10--------------|
E|--8----7----10-10-10-10-10-10-10-10-10--------------|


Order of the parts
- Intro
- Pre-Verse
- Verse
- End of the verse 1
- Chorus
- Verse
- End of the verse 1 with the bend (please see in that part)
- Chorus
- Pre-Bridge
- Bridge (Liam Cormier Part)
- End of the verse 2
- Chorus
- End on a Db5


| /  slide up
| \  slide down
| h  hammer-on
| p  pull-off
| ~  vibrato
| +  harmonic
| x  Mute note
============================================================================
Suggest correction
What's this?
You can suggest a correction to this tab. Community and Mods will review your correction and vote to approve or reject it.
comments
We did not receive enough feedback on this tab! Please rate:
print report bad tab
1 2 3 4 5
3 comments total.
+1 reply
PatrickDoesABCs 603 wrote on August 27 2009, 03:28 pm

this looks alot like my tab buddy
just differant finguring in some points, and no lead in the chorus.... did you steal this?
this is good btw lol

0 reply
Alien4ever 70 wrote on September 19 2009, 09:50 am

nah, i didnt steal that from you. sorry if you thought so, i didnt wanted you to think that. the only thing i could say that i used was the intro and the chorus rhythm. sry if i didnt mention you dude. i just forgot. i honestly wrote most of it by ear so if you think we have some parts in common, well, that probably means that those parts are perfect since we think the same thing about it. thanks btw.

Alien4ever

+1 reply
Sam Rulez D00d 1,831 wrote on April 13 2010, 09:39 am

i think the chorus lead is this:
|------------------------------------8--8-6-6-5-5-----5-|
|---------5h6---------5h6-------------------------8-8---|
|---5h7---------5h7---------5h7-(x3)--------------------|
|-0-----0-----0-----0-----0-----------------------------|
|-------------------------------------------------------|
|-------------------------------------------------------|

or you can play it like this:
|--------------------------------------8--8-6-6-5-5-----5-|
|---------------------------------------------------8-8---|
|---5h7---9h10---5h7---9h10---5h7-(x3)--------------------|
|-0-----0------0-----0------0-----------------------------|
|---------------------------------------------------------|
|---------------------------------------------------------|

...or you can play all that first part on the d-string and pull off the 0's

I really don't know which one he does but I know the notes are correct.

Peace

guest
You may want to rate the tab now too:
select rating
Please do not post tabs as comments. Select "correction" instead!