Oops, an error
Loading. Please wait.

Vices Bass Tab

version 3
version 3

Whole song

Interactive

298 views 1 this week
no commentswrite comment
1 2 3 4 5
3 more votes to show rating
add to favorites
launch autoscroll
font size
0
reset
guitar tuner
Autoscroll
slow
fast
+/-
esc
set tempo
stop
Help us to improve Ultimate-Guitar.com Take our survey!
×
Author
Tuning
C# G# C# F# A# D#
++++++++++++++++++++++
| Silverstein- Vices |
++++++++++++++++++++++


"Id rather sleep on the street..."


Tuning: Drop C# (C#ADG)




Intro
1.
G||-------------------|
D||-------------------|
A||-------------------|
C#|-0~----------------|

2.
G||--------------------------------------|
D||--------------------------------------|
A||-------------0-000000-000-2-22222-222-|
C#|-000~---------------------------------|

"You cant see me behind the door..."
3.
G||--------------------------------------------|
D||--------------------------------------------|
A||--------------------------------------------|
C#|-7h8-7h8-0~--7h8-0~--0-7h8-7h8-0~--7h8-5555-|

Verse
"You call him..."
4.
G||-----------------------------------------------------|
D||-----------------------------------------------------|
A||------------------------------2422-0-000000-2-222222-|--x2
C#|-0-00000000000000-0-0000000000-----------------------|

"And be unfaithful..."
5.
G||-----------------------------------------------|
D||-----------------------------------------------|
A||------------------0~----0~----2222222-2x-------|
C#|-0-00000000000000------------------------------|

Chorus
"Seven seven with a lime..."
6.
G||---------------------------------------------------------------------|
D||---------------------------------------------------------------------|
A||---------------------------------2-2222222222222-0-00000-2-----------|--x2
C#|-0-0000000000000-3-3333333333333---------------------------0h3-0h3h5-|

Verse
"Im seven deep..."
7.
G||-----------------------------------------------------|
D||-----------------------------------------------------|
A||------------------------------2422-0-000000-2-222222-|--x2
C#|-0-00000000000000-0-0000000000-----------------------|

"Ill fight this temptation..."
8.
G||-----------------------------------------------|
D||-----------------------------------------------|
A||------------------0~----0~----2222222-2x-------|
C#|-0-00000000000000------------------------------|

Chorus
"Seven seven with a lime..."
9.
G||---------------------------------------------------------------------|
D||---------------------------------------------------------------------|
A||---------------------------------2-2222222222222-0-00000-2-----------|--x2
C#|-0-0000000000000-3-3333333333333---------------------------0h3-0h3h5-|

Outro
10.
G||-------------------|
D||-------------------|
A||-------------------|
C#|-0~----------------|

11.
G||--------------------------------------|
D||--------------------------------------|
A||-------------0-000000-000-2-22222-222-|
C#|-000~---------------------------------|

Bridge
"Im not coming home tonight..."
12.
G||-----------------------------------------------------------------------------------|
D||-----------------------------------------------------------------------------------|
A||-----------------------------------------------------------------------------------|
C#|-7h8-7h8-0~--7h8-0~--0-7h8-7h8-0~--7h8-555-7h8-7h8-0~--7h8-0~--0-7h8-7h8-5x--------|

"Im not coming home tonight..."
12.
G||-------------------------------------------------------------------------------------|
D||-------------------------------------------------------------------------------------|
A||-------------------------------------------------------------------------------------|
C#|-7h8-7h8-0~--7h8-0~--0-7h8-7h8-0~--7h8-555-7h8-7h8-0~--7h8-0~--0-7h8-7h8-0~--7h8-555-|

Pre-Chorus
"On this city street..."
13.
G||------------------------------------|
D||------------------------------------|
A||-0~----0~----22222222-2x------------|
C#|--------------------------------12/-|

Chorus
"Seven seven with a lime..."
14.
G||---------------------------------------------------------------------|
D||---------------------------------------------------------------------|
A||---------------------------------2-2222222222222-0-00000-2-----------|--x2
C#|-0-0000000000000-3-3333333333333---------------------------0h3-0h3h5-|

Outro
15.
G||-------------------|
D||-------------------|
A||-------------------|
C#|-0~----------------|


Please rate thanks!!


Lyrics:

You can't see me behind the door
I just heard everything you said
You call him
You're saying all the things you used to say to me
Who is he
I never thought you'd drop that avalanche on me
And be unfaithful
These hotel walls are paper thin
I'm going out

Seven seven with the lime will keep me safe
Long enough to stop the thought of your embrace inside my head
The lies that I've been fed
Throw it back behind my lips the pain is gone
Line em up and knock em down the night goes on 
and on and on to let me cope with this disaster

I'm seven deep
Long brown hair and blue eyes
Looking right at me
Who is she
I never thought I'd ever think of stepping out
I'll fight this temptation
This crowded bar is full of sin
I'm going out

I'm not coming home tonight
I'd rather sleep on the street
I'm not coming home to you
I won't sleep with the devil

On this city street I'll rest my head tonight
I'm going out!

 

+++++++++++++++++++++++++++++++++
| Raileff                       |
| Underground__Dora@Hotmail.Com |
+++++++++++++++++++++++++++++++++
Suggest correction
Give kudos to tab author, rate the tab!
1 2 3 4 5
comments
print report bad tab
guest
You may want to rate the tab now too:
select rating
Wanna post a correction for this tab? Suggest correction