Oops, an error
Loading. Please wait.

Wake Up tab

289 views 24 this week
no commentswrite comment
1 2 3 4 5
2 more votes to show rating
add to favorites
×
Save as Personal and add changes to this tab that will be seen only by you. Learn more ›
×
You can save this tab as Personal to edit and correct it or add notes. All changes will be seen only by you. Learn more »
launch autoscroll
font size
0
reset
how to read this tab
guitar tuner
edit
Autoscroll
slow
fast
+/-
esc
set tempo
stop
Tabbed by: Joshua Garcia (joshuag523@aol.com)

Tabs for the song: Wake Up by Silverstein
Please rate and let me know if you have any corrections. Thank you.


Tuning: Custom Tuning (B A D G B E)


[Intro]
Guitar 1:
E||----------------------------------------------------------------------------------------------|
B||----------------------------------------------------------------------------------------------|
G||---------3----------------------3----------------------3----------------------3---------------|
D||----------------------------------------------------------------------------------------------| [x4]
A||------------6----------------------6----------------------4----------------------4------------|
B||--0----------------------0----------------------4----------------------4----------------------|



[Pre-Chorus]
Guitar 1:
E||-------------------------------------------------------------------|
B||-------------------------------------------------------------------|
G||-------------------------------------------------------------------|
D||-------------------------------------------------------------------|
A||-------------------------------------------------------------------|
B||--0---0---0---0---0---0---0---0---2---2---2---2---2---2---2---2----|
     .   .   .   .   .   .   .   .   .   .   .   .   .   .   .   .

E||-------------------------------------------------------------------|
B||-------------------------------------------------------------------|
G||-------------------------------------------------------------------|
D||-------------------------------------------------------------------|
A||-------------------------------------------------------------------|
B||--4---4---4---4---4---4---4---4---4---4---4---4---11--11--11--11\--|
     .   .   .   .   .   .   .   .   .   .   .   .   .   .   .   .


E||-------------------------------------------------------------------|
B||-------------------------------------------------------------------|
G||-------------------------------------------------------------------|
D||-------------------------------------------------------------------|
A||-------------------------------------------------------------------|
B||--0---0---0---0---0---0---0---0---2---2---2---2---2---2---2---2----|
     .   .   .   .   .   .   .   .   .   .   .   .   .   .   .   .

E||-------------------------------------------------------------------|
B||-------------------------------------------------------------------|
G||-------------------------------------------------------------------|
D||-------------------------------------------------------------------|
A||-------------------------------------------------------------------|
B||--4---4---4---4---4---4---4---4---4---4---4---4---4---4---4---4----|
     .   .   .   .   .   .   .   .   .   .   .   .   .   .   .   .



Guitar 2:
E||-------------------------------------------------------------------|
B||--4-------------------------------4-----------6--------------------|
G||-------------------------------------------------------------------|
D||-------------------------------------------------------------------|
A||-------------------------------------------------------------------|
B||-------------------------------------------------------------------|


E||-------------------------------------------------------------------|
B||--7-------------------------------7---------------2----------------|
G||-------------------------------------------------------------------|
D||-------------------------------------------------------------------|
A||-------------------------------------------------------------------|
B||-------------------------------------------------------------------|


E||-------------------------------------------------------------------|
B||--4-------------------------------4-----------6--------------------|
G||-------------------------------------------------------------------|
D||-------------------------------------------------------------------|
A||-------------------------------------------------------------------|
B||-------------------------------------------------------------------|


E||-------------------------------------------------------------------|
B||--7-------------------------------7--------------------------------|
G||-------------------------------------------------------------------|
D||-------------------------------------------------------------------|
A||-------------------------------------------------------------------|
B||-------------------------------------------------------------------|



[Verse]
Guitar 1:
E||---------------------------------------------------------------------------------------|
B||---------------------------------------------------------------------------------------|
G||--3----------------------3----------------------3----------------------3---------------|
D||---------------------------------------------------------------------------------------|
A||-----6----------------------6----------------------4----------------------4------------|
B||------------------0----------------------4----------------------4----------------------|


Guitar 2:
E||---------------------------------------------------------------------------------------|
B||---------------------------------------------------------------------------------------|
G||---------------------------------------------------------------------------------------|
D||---------------------------------------------------------------------------------------|
A||---------------------------------------------------------------------------------------|
B||--0--------------------------------0-2-7-4----------------------4-----------------6-7--|




Guitar 1:
E||----------------------------------------------------------------------------------------------|
B||----------------------------------------------------------------------------------------------|
G||---------3----------------------3----------------------3----------------------3---------------|
D||----------------------------------------------------------------------------------------------|
A||------------6----------------------6----------------------4----------------------4------------|
B||--0----------------------0---------------------------------------------4----------------------|


Guitar 2:
E||----------------------------------------------------------------------------------------------|
B||----------------------------------------------------------------------------------------------|
G||----------------------------------------------------------------------------------------------|
D||----------------------------------------------------------------------------------------------|
A||----------------------------------------------------------------------------------------------|
B||--0---------------------------------------0-2-7------4-----------------4----------------------|



[Pre-Chorus]
Guitar 1:
E||-------------------------------------------------------------------|
B||-------------------------------------------------------------------|
G||-------------------------------------------------------------------|
D||-------------------------------------------------------------------|
A||-------------------------------------------------------------------|
B||--0---0---0---0---0---0---0---0---2---2---2---2---2---2---2---2----|
     .   .   .   .   .   .   .   .   .   .   .   .   .   .   .   .

E||-------------------------------------------------------------------|
B||-------------------------------------------------------------------|
G||-------------------------------------------------------------------|
D||-------------------------------------------------------------------|
A||-------------------------------------------------------------------|
B||--4---4---4---4---4---4---4---4---4---4---4---4---11--11--11--11\--|
     .   .   .   .   .   .   .   .   .   .   .   .   .   .   .   .


E||-------------------------------------------------------------------|
B||-------------------------------------------------------------------|
G||-------------------------------------------------------------------|
D||-------------------------------------------------------------------|
A||-------------------------------------------------------------------|
B||--0---0---0---0---0---0---0---0---2---2---2---2---2---2---2---2----|
     .   .   .   .   .   .   .   .   .   .   .   .   .   .   .   .

E||-------------------------------------------------------------------|
B||-------------------------------------------------------------------|
G||-------------------------------------------------------------------|
D||-------------------------------------------------------------------|
A||-------------------------------------------------------------------|
B||--4---4---4---4---4---4---4---4---4---4---4---4---4---4---4---4----|
     .   .   .   .   .   .   .   .   .   .   .   .   .   .   .   .



Guitar 2:
E||-------------------------------------------------------------------|
B||--4-------------------------------4-----------6--------------------|
G||-------------------------------------------------------------------|
D||-------------------------------------------------------------------|
A||-------------------------------------------------------------------|
B||-------------------------------------------------------------------|


E||-------------------------------------------------------------------|
B||--7-------------------------------7---------------2----------------|
G||-------------------------------------------------------------------|
D||-------------------------------------------------------------------|
A||-------------------------------------------------------------------|
B||-------------------------------------------------------------------|


E||-------------------------------------------------------------------|
B||--4-------------------------------4-----------6--------------------|
G||-------------------------------------------------------------------|
D||-------------------------------------------------------------------|
A||-------------------------------------------------------------------|
B||-------------------------------------------------------------------|


E||-------------------------------------------------------------------|
B||--7-------------------------------7--------------------------------|
G||-------------------------------------------------------------------|
D||-------------------------------------------------------------------|
A||-------------------------------------------------------------------|
B||-------------------------------------------------------------------|



[Breakdown]
Guitar 1/2:
E||----------------------------------------------------------------------------------------------|
B||----------------------------------------------------------------------------------------------|
G||----------------------------------------------------------------------------------------------|
D||----------------------------------------------------------------------------------------------|
A||--2------2--2------------2------2--2------------6------6--6------------6------6--6------------|
B||--0------0--0------------0------0--0------------4------4--4------------4------4--4------------|


E||----------------------------------------------------------------------------------------------|
B||----------------------------------------------------------------------------------------------|
G||----------------------------------------------------------------------------------------------|
D||----------------------------------------------------------------------------------------------|
A||--2------2--2------------2------2--2------------6------6--6------------6------6---------------|
B||--0------0--0------------0------0--0------------4------4--4------------4------4---------------|



[Chorus]
Guitar 1:
E||-------------------------------------------------------------------------------------------------------|
B||-------------------------------------------------------------------------------------------------------|
G||-------------------------------------------------------------------------------------------------------|
D||-------------------------------------------------------------------------------------------------------|
A||--2--2--2--2--2--2--2--2--4--4--4--4--4--4--4--4--6--6--6--6--6--6--6--6--6--6--6--6--6/13-13-13---13--|
B||--0--0--0--0--0--0--0--0--2--2--2--2--2--2--2--2--4--4--4--4--4--4--4--4--4--4--4--4--4/11-11-11---11--|


E||---------------------------------------------------------------------------------------------------|
B||---------------------------------------------------------------------------------------------------|
G||---------------------------------------------------------------------------------------------------|
D||---------------------------------------------------------------------------------------------------|
A||--2--2--2--2--2--2--2--2--4--4--4--4--4--4--4--4--6--6--6--6--6--6--6--6--6--6--6--6--6-6-6-6---6--|
B||--0--0--0--0--0--0--0--0--2--2--2--2--2--2--2--2--4--4--4--4--4--4--4--4--4--4--4--4--4-4-4-4---4--|


E||-------------------------------------------------------------------------------------------------------|
B||-------------------------------------------------------------------------------------------------------|
G||-------------------------------------------------------------------------------------------------------|
D||-------------------------------------------------------------------------------------------------------|
A||--2--2--2--2--2--2--2--2--4--4--4--4--4--4--4--4--6--6--6--6--6--6--6--6--6--6--6--6--6/13-13-13---13--|
B||--0--0--0--0--0--0--0--0--2--2--2--2--2--2--2--2--4--4--4--4--4--4--4--4--4--4--4--4--4/11-11-11---11--|


E||-------------------------------------------------------------------------------------------------------|
B||-------------------------------------------------------------------------------------------------------|
G||-------------------------------------------------------------------------------------------------------|
D||-------------------------------------------------------------------------------------------------------|
A||--2--2--2--2--2--2--2--2--4--4--4--4--4--4--4--4--6--6--6--6--6--6--6--6--6--6--6--6--6-6-6-6-6-6-6-6--|
B||--0--0--0--0--0--0--0--0--2--2--2--2--2--2--2--2--4--4--4--4--4--4--4--4--4--4--4--4--4-4-4-4-4-4-4-4--|


Guitar 2:
E||-------------------------------------------------------------------|
B||--4-------------------------------4-----------6--------------------|
G||-------------------------------------------------------------------|
D||-------------------------------------------------------------------|
A||-------------------------------------------------------------------|
B||-------------------------------------------------------------------|


E||-------------------------------------------------------------------|
B||--7-------------------------------7---------------2----------------|
G||-------------------------------------------------------------------|
D||-------------------------------------------------------------------|
A||-------------------------------------------------------------------|
B||-------------------------------------------------------------------|


E||-------------------------------------------------------------------|
B||--4-------------------------------4-----------6--------------------|
G||-------------------------------------------------------------------|
D||-------------------------------------------------------------------|
A||-------------------------------------------------------------------|
B||-------------------------------------------------------------------|


E||-------------------------------------------------------------------|
B||--7-------------------------------7--------------------------------|
G||-------------------------------------------------------------------|
D||-------------------------------------------------------------------| [x2]
A||-------------------------------------------------------------------|
B||-------------------------------------------------------------------|



[Outro]
Guitar 1:
E||------------------------------------------------------------------------------------------------------|
B||---------0--------------------------------------------------------------------------------------------|
G||-----------------------------------3------------------------3------------------------3----------------|
D||------------4---------4-------------------------------------------------------------------------------|[x2]
A||-------------------------6------------4---------4/6------------6---------4/6------------6--------4/6--|
B||--0----------------0--------2----------------2-------4----------------4-------4------------4--4-------|


Guitar 2:
E||-------------------------------------------------------------------|
B||--4-------------------------------4-----------6--------------------|
G||-------------------------------------------------------------------|
D||-------------------------------------------------------------------|
A||-------------------------------------------------------------------|
B||-------------------------------------------------------------------|


E||-------------------------------------------------------------------|
B||--7-------------------------------7---------------2----------------|
G||-------------------------------------------------------------------|
D||-------------------------------------------------------------------|
A||-------------------------------------------------------------------|
B||-------------------------------------------------------------------|


E||-------------------------------------------------------------------|
B||--4-------------------------------4-----------6--------------------|
G||-------------------------------------------------------------------|
D||-------------------------------------------------------------------|
A||-------------------------------------------------------------------|
B||-------------------------------------------------------------------|


E||-------------------------------------------------------------------|
B||--7-------------------------------7--------------------------------|
G||-------------------------------------------------------------------|
D||-------------------------------------------------------------------| [x2]
A||-------------------------------------------------------------------|
B||-------------------------------------------------------------------|





*****************************
-Tablature Legend-

h   hammer-on
p   pull-off
b   bend
pb  pre-bend
r   release bend
~   hold / vibrato
.   palm mute
/   slide up
\   slide down
*   pinch harmonic
'   natural harmonic
x   mute note
T   tap

*****************************

            
            
Suggest correction
Creating personal tab
Creating personal tab
You can edit any tab online and save it as your Personal.

You can edit, replace or remove any tab part or add personal notes – all changes will be seen only by you.

Personal tabs can be accessed anytime from any device, even offline.
Learn more »
Give kudos to tab author, rate the tab!
1 2 3 4 5
comments
print report bad tab
guest
You may want to rate the tab now too:
select rating
Wanna post a correction for this tab? Suggest correction