Oops, an error
Loading. Please wait.

We Are Not The World Bass Tab

249 views 1 this week
no commentswrite comment
1 2 3 4 5
3 more votes to show rating
add to favorites
launch autoscroll
font size
0
reset
guitar tuner
Autoscroll
slow
fast
+/-
esc
set tempo
stop
Help us to improve Ultimate-Guitar.com Take our survey!
×
Author
Tuning
D A D G B E
+++++++++++++++++++++++++++++++++++++
| Silverstein- We Are Not The World |
+++++++++++++++++++++++++++++++++++++


"Just another extra in your play, the fool..."


Tuning: Drop D (DADG)


Chorus
"I've always been your favorite game..."
1.
G|----------------------------------------------------------------------|
D|----------------------------------------------------------------------|
A|----------------------------------------------------------------------|
D|-4-444444-2-2-2-2-4-444444-2-2-2-2-4-444444-2-2-2-2-0-00000-2-2222222-|

Outro
2.
G|------------------|
D|------------------|
A|------------------|
D|-4~---------------|

Verse
"Turn on, tune in..."
3.
G|-------------------------------------------------------------------------|
D|-------------------------------------------------------------------------|
A|-5~----4~----------------------------5~----4~----------------------------|
D|-------------444-2h444-2h444-2h444-2-------------444-2h444-2h444-2h444-2-|

"Your charismatic lies make tears run down their cheeks..."
4.
G|-----------------------------------------------------------------------------------------------|
D|-----------------------------------------------------------------------------------------------|
A|5~--7-4~--2-------------------------5~--7-4~--2------------------------------------------------|
D|------------444-2h444-2h444-2h444-2-------------444-2h444-2h444-2h444-2h444-2h444-2h444-2h444-2|

Pre-Chorus
"And now you've taken her away..."
5.
G|-----------------------|
D|-----------------------|
A|-2~--------7~----------|
D|-----------------2~----|

Chorus
"I've always been your favorite game..."
6.
G|----------------------------------------------------------------------|
D|----------------------------------------------------------------------|
A|----------------------------------------------------------------------|
D|-4-444444-2-2-2-2-4-444444-2-2-2-2-4-444444-2-2-2-2-0-00000-2-2222222-|

Outro
7.
G|-------------------|
D|-------------------|
A|-------------------|
D|-44444444-44444444-|

Verse
"Pull out the pin..."
8.
G|-------------------------------------------------------------------------|
D|-------------------------------------------------------------------------|
A|-5~----4~----------------------------5~----4~----------------------------|
D|-------------444-2h444-2h444-2h444-2-------------444-2h444-2h444-2h444-2-|

"We fight for billionaires..."
9.
G|-----------------------------------------------------------------------------------------------|
D|-----------------------------------------------------------------------------------------------|
A|5~--7-4~--2-------------------------5~--7-4~--2------------------------------------------------|
D|------------444-2h444-2h444-2h444-2-------------444-2h444-2h444-2h444-2h444-2h444-2h444-2h444-2|

Pre-Chorus
"And now they take your life away..."
10.
G|-----------------------|
D|-----------------------|
A|-2~--------7~----------|
D|-----------------2~----|

Chorus
"I've always been your favorite game..."
11.
G|----------------------------------------------------------------------|
D|----------------------------------------------------------------------|
A|----------------------------------------------------------------------|--x2
D|-4-444444-2-2-2-2-4-444444-2-2-2-2-4-444444-2-2-2-2-0-00000-2-2222222-|

Bridge
"And now that war..."
12.
G|------------------------------------------------------------|
D|------------------------------------------------------------|
A|------------------------------------------------------------|
D|-0~-00~-000-0~-2~-22~-222-2~-4~-44~-444-4~-4-44~-4-33333333-|

"We've come too far..."
13.
G|-------------------------------------------------------------------------------|
D|-------------------------------------------------------------------------------|
A|-----------------------------0~------------------------------4-4-4-4-4~--------|
D|-0~-00~-000-0~-2~-22~-222-2~-----6~--4~--2~--0-0-0-0-0-0-0-0-------------------|

Chorus
"I've always been your favorite game..."
14.
G|----------------------------------------------------------------------|
D|----------------------------------------------------------------------|
A|----------------------------------------------------------------------|
D|--------------------------------------------2-2-2-2-0-00000-2-2222222-|

"I've always been your favorite game..."
15.
G|----------------------------------------------------------------------|
D|----------------------------------------------------------------------|
A|---------------------------------------------------------------00200--|
D|-4-444444-2-2-2-2-4-444444-2-2-2-2-4-444444-2-2-2-2-0-00000-2-2-----2-|

"In your play..."
16.
G|---------------------------------------------------------------|
D|---------------------------------------------------------------|
A|------------00200----------4-42200-----------------------------|
D|-0-00000-2-2-----2-0-00000--------22-4-4x--2-4x----------------|


Please rate thanks!!


Lyrics:

I've always been your favorite game
And all the world's your spot lit stage
I'm just another extra in your play, the fool

(Turn on, tune in)
I'm ready for your drama
(Tape up, weigh in)
You're throwing every hook tonight
Your charismatic lies make tears run down their cheeks
(Run down their cheeks)
I've lost the only thing I need
Here's to the plaintiff
And now you've taken her away

I've always been your favorite game
And all the world's your spot lit stage
Just another extra in your play, your fool

(Pull out the pin)
I'm falling on the grenade now
(Don't shoot, don't shoot)
I'm just a kid like you
We fight for billionaires who bomb our city streets
(Armed to the teeth)
Divide the youth for corporate greed
Here's to the propaganda
And now they take your life away

And now that war has been declared,
How long until bombs burst in air?
We've come too far
Just to let this die, to throw this away

I've always been your favorite game
And all the world's your sparkling stage
Just another extra in your play



+++++++++++++++++++++++++++++++++
| Raileff                       |
| Underground__Dora@Hotmail.Com |
+++++++++++++++++++++++++++++++++
Suggest correction
Give kudos to tab author, rate the tab!
1 2 3 4 5
comments
print report bad tab
guest
You may want to rate the tab now too:
select rating
Wanna post a correction for this tab? Suggest correction