Oops, an error
Loading. Please wait.

Weak And The Wounded Bass Tab

249 views 1 this week
2 commentsread comments
1 2 3 4 5
2 more votes to show rating
add to favorites
launch autoscroll
font size
0
reset
guitar tuner
Autoscroll
slow
fast
+/-
esc
set tempo
stop
Help us to improve Ultimate-Guitar.com Take our survey!
×
Author
Difficulty
novice
Tuning: Drop D

----------------------
Updated: 6/29/07
I cleaned it up a bit.
----------------------

Intro
|---------------------------------|
|---------------------------------|
|---------------------------------|
|-7-7777-7-7777-7-7777-7-7777-15~-|

|---------------------------------------------------------|
|---------------------------------------------------------|
|---------------------------------------------------------|
|-7-7777-7-7777-7-7777-7-7777-15~-14-15-16-15-14-15-14-15-|

|---------------------------------|
|---------------------------------|
|---------------------------------|
|-7-7777-7-7777-7-7777-7-7777-15~-|x2

Verse
|-------------------------------------------|
|-------------------------------------------|
|-------------------------------------------|
|-77x-------777x-------33x-------333x-------|x4

Chorus
|---------------------------------|
|---------------------------------|
|---------------------------------|
|-7-7-7-7-7-7-7-7-5-5-5-3-3-3-3-3-|x3

|--------------------|
|--------------------|
|--------------------|
|-7--5--3~--3--5--7~-|

Verse
|-----------------------------------|
|-----------------------------------|
|-----------------------------------|
|-7777777777777777-3333333333333333-|x4

Chorus
|---------------------------------|
|---------------------------------|
|---------------------------------|
|-7-7-7-7-7-7-7-7-5-5-5-3-3-3-3-3-|x3

|--------------------|
|--------------------|
|--------------------|
|-7--5--3~--3--5--7~-|

Bridge
|------------------------------------|
|------------------------------------|
|------------------------------------|
|-77777777-55555555-3333333333333333-|x3

|----------------------------|
|----------------------------|
|----------------------------|
|-77777777-55555555-3--3--3~-|

|------------------------------------|
|------------------------------------|
|------------------------------------|
|-77777777-55555555-3333333333333333-|

|----------------------------|
|----------------------------|
|----------------------------|
|-77777777-55555555-3--3--3~-|

Outro
|-----------|
|-----------|
|-----------|
|-3--3--3~~-|
Suggest correction
Give kudos to tab author, rate the tab!
1 2 3 4 5
comments
print report bad tab
2 comments total.
0 reply
RaiLeff 12,922 Feb 10, 2007 09:20 PM

Good tab, but it should really be Standard Tuning: EADG
Doesn't need to be Drop D ;)

0 reply
carrotcake 1,997 Jun 27, 2007 08:45 PM

In the dvd from the discovering the waterfront (not re-issue) he plays it in drop d or else I have a bad eye

guest
You may want to rate the tab now too:
select rating
Wanna post a correction for this tab? Suggest correction