Oops, an error
Loading. Please wait.

Weak And The Wounded Tab

2,666 views 1 this week
2 commentsread comments
1 2 3 4 5
x 6
add to favorites
launch autoscroll
font size
0
reset
how to read this tab
guitar tuner
Autoscroll
slow
fast
+/-
esc
set tempo
stop
Help us to improve Ultimate-Guitar.com Take our survey!
×
Author
Artist: Silverstein
Song: The Weak and the Wounded

Tuning: Drop D

Intro:
Gtr. 1
e|---------------------|
B|-----0~--------------|
G|-----9~--------------|
D|-----10~-------------|
A|-----8~--------------|
D|-----7~--------------|

Gtr. 1 & 2
e|-------------------------------------------------|
B|-------------------------------------------------|
G|-------------------------------------------------|
D|----7-7-7-7-7-7-7-7-7-7-7-7--x-x-x-x-------------|
A|----7-7-7-7-7-7-7-7-7-7-7-7--x-x-x-x----(x4)-----|
D|----7-7-7-7-7-7-7-7-7-7-7-7--x-x-x-x-------------|
                                            
Verse:                                       Second times goes like this:
e|----------------------------------------|--------------------------------|
B|----------------------------------------|--------------------------------|
G|-------------------------10----9--------|------------------------7-------|
D|----9h10p9---9---7---7------------(x3)--|----9h10p9---9---7---7-----10---|
A|--0--------0---0---8---8----8-----------|--0--------0---0---8---8------9-|
D|----------------------------------------|--------------------------------|

Ends like this:
e|-----------------------------------------|
B|-----------------------------------------|
G|---------------------------7~------------|
D|----9h10p9---9---7---7-----10~-----------|
A|--0--------0---0---8---8---9~------------|
D|-----------------------------------------|

e|-------------------------------------------------------------------------|
B|-------------------------------------------------------------------------|
G|-------------------------------------------------------------------------|
D--*-*--------------*-*----------------------------------------------------|
A|-0-0-12h14h15-14b-0-0-12h14h15-14b-*--*-12h14h15-14b--*--*-12h14h15-14b--|
D|----------------------------------15-15--------------15-15---------------|
P.M. = *
e|----------------------|
B|---Pinch Harmonic-----|
G|------<13>------------|
D|----------------------|
A|----------------------|
D|----------------------|

Gtr. 2
e|------------------------------------|
B|------------------------------------|
G|---*-*--*-*-*-----*-*--*-*-*--------|
D|---7-7--7-7-7-----3-3--3-3-3--------|
A|---7-7--7-7-7-----3-3--3-3-3--------|
E|---7-7--7-7-7-----3-3--3-3-3--------|

Chorus:
Gtr. 1
e|------------------------------------------------------------------------|
B|------------------------------------------------------------------------|
G|---5-5-5-5-5-5-5-5-5-5-5-5-5-5-5--7-7-7-7-7-----------------------------|
D|---5-5-5-5-5-5-5-5-5-5-5-5-5-5-5--7-7-7-7-7--7-7-7-7-7-7-7-7-7-7--(x3)--|
A|---3-3-3-3-3-3-3-3-3-3-3-3-3-3-3--5-5-5-5-5--7-7-7-7-7-7-7-7-7-7--------|
D|---------------------------------------------7-7-7-7-7-7-7-7-7-7--------|

e|------------------------|
B|------------------------|
G|---5x-5x-5~--7x-7x------|
D|---5x-5x-5~--7x-7x--7~--|
A|---3x-3x-3~--5x-5x--7~--|
D|--------------------7~--|

Gtr. 2
e|----------------------------------------------|
B|----------------------------------------------|
G|---9/10\9~--9/10\9--5~--9/10\9~--9/10\9--14~--|
D|---x--x-x---x--x-x--x---x--x-x---x--x-x---x---|
A|---7/-8\7~--7/-8\7--3~--7/-8\7~--7/-8\7--12~--|
E|----------------------------------------------|

e|-------------------------------------------------|
B|-------------------------------------------------|
G|---9/10\9~--9/10\9--5~--7--7--7~--10--9--14~-----|
D|---x--x-x---x--x-x--x---x--x--x----x--x---x------|
A|---7/-8\7~--7/-8\7--3~--9--9--9~---8--7--12~-----|
E|-------------------------------------------------|

Verse:
Gtr. 1
e|-------------------------------------------------------------------------|
B|-------------------------------------------------------------------------|
G|-------------------------------------------------------------------------|
D--*-*--------------*-*----------------------------------------------------|
A|-0-0-12h14h15-14b-0-0-12h14h15-14b-*--*-12h14h15-14b--*--*-12h14h15-14b--|
D|----------------------------------15-15--------------15-15---------------|

e|----------------------|
B|---Pinch Harmonic-----|
G|------<13>------------|
D|----------------------|
A|----------------------|
D|----------------------|

Gtr. 2
e|--------------------------------------------------------------------|
B|--------------------------------------------------------------------|
G|--*-*-*-*-*-*-*-*-*-*-*-*-*-*-*-*--*-*-*-*-*-*-*-*-*-*-*-*-*-*-*-*--|
D|--7-7-7-7-7-7-7-7-7-7-7-7-7-7-7-7--3-3-3-3-3-3-3-3-3-3-3-3-3-3-3-3--|
A|--7-7-7-7-7-7-7-7-7-7-7-7-7-7-7-7--3-3-3-3-3-3-3-3-3-3-3-3-3-3-3-3--|
D|--7-7-7-7-7-7-7-7-7-7-7-7-7-7-7-7--3-3-3-3-3-3-3-3-3-3-3-3-3-3-3-3--|

Gtr. 1
e|------------------------------------------------------------------------|
B|------------------------------------------------------------------------|
G|---5-5-5-5-5-5-5-5-5-5-5-5-5-5-5--7-7-7-7-7-----------------------------|
D|---5-5-5-5-5-5-5-5-5-5-5-5-5-5-5--7-7-7-7-7--7-7-7-7-7-7-7-7-7-7--(x3)--|
A|---3-3-3-3-3-3-3-3-3-3-3-3-3-3-3--5-5-5-5-5--7-7-7-7-7-7-7-7-7-7--------|
D|---------------------------------------------7-7-7-7-7-7-7-7-7-7--------|

e|------------------------|
B|------------------------|
G|---5x-5x-5~--7x-7x------|
D|---5x-5x-5~--7x-7x--7~--|
A|---3x-3x-3~--5x-5x--7~--|
D|--------------------7~--|

Gtr. 2
e|----------------------------------------------|
B|----------------------------------------------|
G|---9/10\9~--9/10\9--5~--9/10\9~--9/10\9--14~--|
D|---x--x-x---x--x-x--x---x--x-x---x--x-x---x---|
A|---7/-8\7~--7/-8\7--3~--7/-8\7~--7/-8\7--12~--|
E|----------------------------------------------|

e|-------------------------------------------------|
B|-------------------------------------------------|
G|---9/10\9~--9/10\9--5~--7--7--7~--10--9--14~-----|
D|---x--x-x---x--x-x--x---x--x--x----x--x---x------|
A|---7/-8\7~--7/-8\7--3~--9--9--9~---8--7--12~-----|
E|-------------------------------------------------|

Bridge:
Gtr. 1
e|-------------------------------------------|
B|-------------------------------------------|
G|-------------------------------------------|
D|--10-10-10-10--9--9--9---7-7-7--9--9--9----|
A|--12-12-12-12--10-10-10--8-8-8--10-10-10---|
D|-------------------------------------------|

e|-----------------------------------------------|
B|-----------------------------------------------|
G|-----------------------------------------------|
D|---10-10-10---9--9--9--7-7-7---9--9--9---(x3)--|
A|---12-12-12--10-10-10--8-8-8--10-10-10---------|
D|-----------------------------------------------|
Guitar 2 does a pick slide after second time played.

Outro:
Gtr.1
e|-----------------------------------------------------------|
B|-----------------------------------------------------------|
G|-----------------------------------------------------------|
D|---7-7-7-7-7--5-5-5-5-5-5-5--3-3-3-3-3-3-3-3-3-3-3-3--(x3)-|
A|---7-7-7-7-7--5-5-5-5-5-5-5--3-3-3-3-3-3-3-3-3-3-3-3-------|
D|---7-7-7-7-7--5-5-5-5-5-5-5--3-3-3-3-3-3-3-3-3-3-3-3-------|

e|---------------------------------------|
B|---------------------------------------|
G|---------------------------------------|
D|---7-7-7-7-7--5-5-5-5-5-5-5--3x-3x-3~--|
A|---7-7-7-7-7--5-5-5-5-5-5-5--3x-3x-3~--|
D|---7-7-7-7-7--5-5-5-5-5-5-5--3x-3x-3~--|

e|-------------------------------------------------------|
B|-------------------------------------------------------|
G|-------------------------------------------------------|
D|---7-7-7-7-7--5-5-5-5-5-5-5--3-3-3-3-3-3-3-3-3-3-3-3---|
A|---7-7-7-7-7--5-5-5-5-5-5-5--3-3-3-3-3-3-3-3-3-3-3-3---|
D|---7-7-7-7-7--5-5-5-5-5-5-5--3-3-3-3-3-3-3-3-3-3-3-3---|

e|---------------------------------------------------|
B|---------------------------------------------------|
G|---------------------------------------------------|
D|---7-7-7-7-7--5-5-5-5-5-5-5--3x-3x-3~---3x-3x-3~---|
A|---7-7-7-7-7--5-5-5-5-5-5-5--3x-3x-3~---3x-3x-3~---|
D|---7-7-7-7-7--5-5-5-5-5-5-5--3x-3x-3~---3x-3x-3~---|

Gtr. 2
I don't have a wah pedal so, I can't tab the second guitar part. And, I don't feel like
trying to tab it. You can figure it out. There's a third guitar in the outro that does a
little something, but I can't put my finger on it, and I really don't care. You can
figure that part out, too.
Suggest correction
comments
print report bad tab
2 comments total.
0 reply
NirvanaFan101 31 Aug 03, 2006 06:34 PM

I LOVE THIS SONG AND IT'S SO EMO JUST LIKE EMO KID W00T! AND ALSO THIS TAB ISN'T REALLY GOOD BUT BETTER THAN NOTHING THANKS BYE I LOVE SILVERSTEIN!

0 reply
mAFIa1039 32 Jan 30, 2007 05:41 PM

pretty decent tab i dont like the what you have for the chord they strum once (not the power chord on the 7th fret that sounds good) but from what i can tell it sounds alright nice work

guest
You may want to rate the tab now too:
select rating
Wanna post a correction for this tab? Suggest correction