Oops, an error
Loading. Please wait.

Whiplash tab

version 1
version 1

Whole song

Interactive

175 views 3 this week
no commentswrite comment
1 2 3 4 5
x 3
add to favorites
×
Save as Personal and add changes to this tab that will be seen only by you. Learn more ›
×
You can save this tab as Personal to edit and correct it or add notes. All changes will be seen only by you. Learn more »
launch autoscroll
font size
0
reset
how to read this tab
guitar tuner
edit
Autoscroll
slow
fast
+/-
esc
set tempo
stop
Guitar Tab for Track 11 off Silverstein's new album "Dead Reflection"

[Verse] Guitar 2: (x2)
"Late night, I try to focus..."
C#|----------------------------------------------------------|
G#|--------6----------5p3------------------------------4-----|
 E|----------------5---------------3----------2-----------0--|
 B|-----7-----------------------5----------3--------1--------|
F#|--5----------3--------------------------------------------|
 B|--------------------------5----------3--------1-----------|

C#|--------------------------------------------------------|
G#|--------6----------5p3---------------------3---------5--|
 E|----------------5---------------3-------3---------5-----|
 B|-----7-----------------------3--------------------------|
F#|--5----------3-----------------------1---------3--------|
 B|--------------------------5-----------------------------|

[Pre-Chorus] Guitar 2:
"I deserve this, itʼs all true..."
C#|--------------------|---------------------------|
G#|--------------------|---------------------------|
 E|--------------------|---------------------------|
 B|--------------------|---------------------------|
F#|--------------------|---------------------------|
 B|--12-12-12-12b13p0--|--12-12----12--12h13p12p0--|(x4) (Don't play the second part a fourth time)

[Chorus] Guitar 2:
"Face down on the cold ground..."
C#|--------------------------------------------------------------------------------------------------|
G#|--------------------------------------------------------------------------------------------------|
 E|--------------------------------------------------------------------------------------------------|
 B|--8--8--8--8--8--8--7--5--5--5--5--5--5--5--3--3--0--0--0--0--0--3--3--0--0--0--0--0--------------|
F#|--8--8--8--8--8--8--7--5--5--5--5--5--5--5--3--3--0--0--0--0--0--3--3--0--0--0--0--0--------------|
 B|--8--8--8--8--8--8--7--5--5--5--5--5--5--5--3--3--0--0--0--0--0--3--3--0--0--0--0--0--7--7--7--7--|(x2)


[Chorus] Guitar 1: (x2)
"Face down on the cold ground..."
C#|--------------------------------------------------------------------------------------|
G#|-11--11--11--11--11--11----10--10-----------------------8--8--------------------------|
 E|-10--10--10--10--10--10----10--10--10--10--10--10--10--10-10--10--10--10--10--10--10--|
 B|-----------------------------------10--10--10--10--10---------10--10--10--10--10--10--|
F#|--------------------------------------------------------------------------------------|
 B|--------------------------------------------------------------------------------------|

C#|-----------------------------------------|
G#|--8--8-------------------10--10--10--10--|
 E|--10-10--10--10--10--10--10--10--10--10--|
 B|---------10--10--10--10------------------|
F#|-----------------------------------------|
 B|-----------------------------------------|

[Transition] Guitar 2:
C#|------------|
G#|------------|
 E|---------5--|
 B|--0h2/3-----|
F#|------------|
 B|------------|

[Verse] Guitar 2: (x2)
"Whiplash, a thousand thoughts..."
C#|----------------------------------------------------------|
G#|--------6----------5p3------------------------------4-----|
 E|----------------5---------------3----------2-----------0--|
 B|-----7-----------------------5----------3--------1--------|
F#|--5----------3--------------------------------------------|
 B|--------------------------5----------3--------1-----------|

C#|--------------------------------------------------------|
G#|--------6----------5p3---------------------3---------5--|
 E|----------------5---------------3-------3---------5-----|
 B|-----7-----------------------3--------------------------|
F#|--5----------3-----------------------1---------3--------|
 B|--------------------------5-----------------------------|

[Pre-Chorus] Guitar 2:
"I deserve this, itʼs all true..."
C#|--------------------|---------------------------|
G#|--------------------|---------------------------|
 E|--------------------|---------------------------|
 B|--------------------|---------------------------|
F#|--------------------|---------------------------|
 B|--12-12-12-12b13p0--|--12-12----12--12h13p12p0--|(x4) (Don't play the second part a fourth time)

[Transition] Guitar 2:
C#|------------|
G#|------------|
 E|---------5--|
 B|--0h2/3-----|
F#|------------|
 B|------------|

[Chorus] Guitar 2:
"Face down on the cold ground..."
C#|--------------------------------------------------------------------------------------------------|
G#|--------------------------------------------------------------------------------------------------|
 E|--------------------------------------------------------------------------------------------------|
 B|--8--8--8--8--8--8--7--5--5--5--5--5--5--5--3--3--0--0--0--0--0--3--3--0--0--0--0--0--------------|
F#|--8--8--8--8--8--8--7--5--5--5--5--5--5--5--3--3--0--0--0--0--0--3--3--0--0--0--0--0--------------|
 B|--8--8--8--8--8--8--7--5--5--5--5--5--5--5--3--3--0--0--0--0--0--3--3--0--0--0--0--0--7--7--7--7--|(x2)


[Chorus] Guitar 1: (x2)
"Face down on the cold ground..."
C#|--------------------------------------------------------------------------------------|
G#|-11--11--11--11--11--11----10--10-----------------------8--8--------------------------|
 E|-10--10--10--10--10--10----10--10--10--10--10--10--10--10-10--10--10--10--10--10--10--|
 B|-----------------------------------10--10--10--10--10---------10--10--10--10--10--10--|
F#|--------------------------------------------------------------------------------------|
 B|--------------------------------------------------------------------------------------|

C#|-----------------------------------------|
G#|--8--8-------------------10--10--10--10--|
 E|--10-10--10--10--10--10--10--10--10--10--|
 B|---------10--10--10--10------------------|
F#|-----------------------------------------|
 B|-----------------------------------------|

[Transition] Guitar 2:
C#|------------|
G#|------------|
 E|---------5--|
 B|--0h2/3-----|
F#|------------|
 B|------------|

[Bridge] Guitar 2:
"But in the pouring rain, I never felt like that..."
C#|----------------------------------------------------------------------------------------------------------|
G#|----------------------------------------------------------------------------------------------------------|
 E|----------------------------------7--7--7--7--------------------------------------------------------------|
 B|--8--8--8--8----5--5--5--5--3--5--7--7--7--7----7--7--7--5--7--8--8--8--8----5--5--5--5--3--5--0--0--0-0--|
F#|--8--8--8--8----5--5--5--5--3--5--5--5--5--5----7--7--7--5--7--8--8--8--8----5--5--5--5--3--5--0--0--0-0--|
 B|--8--8--8--8----5--5--5--5--3--5----------------7--7--7--5--7--8--8--8--8----5--5--5--5--3--5--0--0--0-0--|

C#|--------------|
G#|--------------|
 E|--------------|
 B|--0--0--0--0--|
F#|--0--0--0--0--|
 B|--0--0--0--0--|

[Bridge] Guitar 1:
"But in the pouring rain, I never felt like that..."
C#|--------------------------------------------------------------------------------------------------|
G#|--6--6--6--6--6--6--6--6--6--5--5--5--5--5--5--5-10-10-10-10-10-10-10-10-10--8--8--8--8--8--8--8--|
 E|--7--7--7--7--7--7--7--7--7--7--7--7--7--7--7--7--7--7--7--7--7--7--7--7--7--7--7--7--7--7--7--7--|
 B|--------------------------------------------------------------------------------------------------|
F#|--------------------------------------------------------------------------------------------------|
 B|--------------------------------------------------------------------------------------------------|(x2)

[Breakdown Part 1] Guitar 2:
"Everything you said hit me like a car wreck..."
C#|--------------------|--------------------|
G#|--------------------|--------------------|
 E|--------------------|--------------------|
 B|--------------------|--------------------|
F#|--------------------|--------------------|
 B|--12-12-12-12b13p0--|--12-0--12h13p12p0--|(x3)

C#|--------------------|---------------|
G#|--------------------|---------------|
 E|--------------------|---------------|
 B|--------------------|---------------|
F#|--------------------|--8--10--------|
 B|--12-12-12-12b13p0--|----------7/8--|

[Breakdown Part 2] Both Guitars:
"Iʼm no better than bad luck..."
C#|------------------------|---------------------|------------------------|-------------------|
G#|------------------------|---------------------|------------------------|-------------------|
 E|------------------------|---------------------|------------------------|-------------------|
 B|------------------------|---------------------|------------------------|-------------------|
F#|------------------------|---------------------|------------------------|-------------------|
 B|--12--12--12--12--12p0--|--12--0--12h13p12p0--|--12--12--12--12--12p0--|--12--0--12h13p12--|

C#|--------------------------|------------------------|---------------------|--------------------------|
G#|--------------------------|------------------------|---------------------|--------------------------|
G#|--------------------------|------------------------|---------------------|--------------------------|
 B|--------------------------|------------------------|---------------------|--------------------------|
F#|--------------------------|------------------------|----------8/10-------|--------------------------|
 B|--0----12--0--12h13p12p0--|--12--12--12--12--12p0--|---12--0--------7/8--|--0----12--0--12h13p12p0--|

C#|------------------------|-------------------|--------------------------|------------------------|
G#|------------------------|-------------------|--------------------------|------------------------|
 E|------------------------|-------------------|--------------------------|------------------------|
 B|------------------------|-------------------|--------------------------|------------------------|
F#|------------------------|-------------------|--------------------------|------------------------|
 B|--12--12--12--12--12p0--|--12--0--12h13p12--|--0----12--0--12h13p12p0--|--12--12--12--12--12p0--|

C#|--------------------|-----------|
G#|--------------------|-----------|
G#|--------------------|-----------|
 B|--------------------|--0--3--7--|
F#|----------8/10------|--0--3--7--|
 B|--12--0--------7/8--|--0--3--7--|

[Chorus] Guitar 2:
"Face down on the cold ground..."
C#|--------------------------------------------------------------------|
G#|--------------------------------------------------------------------|
 E|--------------------------------------------------------------------|
 B|--8-----------3--3--0--0--0--0--0--3--3--0--0--0--0--0--7--7--7--7--|
F#|--8-----------3--3--0--0--0--0--0--3--3--0--0--0--0--0--7--7--7--7--|
 B|--8-----------3--3--0--0--0--0--0--3--3--0--0--0--0--0--7--7--7--7--|

C#|--------------------------------------------------------------------------------------|
G#|--------------------------------------------------------------------------------------|
 E|--------------------------------------------------------------------------------------|
 B|--8--8--8--8--8--8--7--5--5--5--5--5--5--5--3--3--0--0--0--0--0--3--3--0--0--0--0--0--|
F#|--8--8--8--8--8--8--7--5--5--5--5--5--5--5--3--3--0--0--0--0--0--3--3--0--0--0--0--0--|
 B|--8--8--8--8--8--8--7--5--5--5--5--5--5--5--3--3--0--0--0--0--0--3--3--0--0--0--0--0--|

[Chorus] Guitar 1: (x2)
"Face down on the cold ground..."
C#|--------------------------------------------------------------------------------------|
G#|-11--11--11--11--11--11----10--10-----------------------8--8--------------------------|
 E|-10--10--10--10--10--10----10--10--10--10--10--10--10--10-10--10--10--10--10--10--10--|
 B|-----------------------------------10--10--10--10--10---------10--10--10--10--10--10--|
F#|--------------------------------------------------------------------------------------|
 B|--------------------------------------------------------------------------------------|

C#|-----------------------------------------|
G#|--8--8-------------------10--10--10--10--|
 E|--10-10--10--10--10--10--10--10--10--10--|
 B|---------10--10--10--10------------------|
F#|-----------------------------------------|
 B|-----------------------------------------|
[Outro] Guitar 2:
"But in the pouring rain, I never felt like that..."
C#|----------------------------------------------------------------------------------------------------------|
G#|----------------------------------------------------------------------------------------------------------|
 E|----------------------------------7--7--7--7--------------------------------------------------------------|
 B|--8--8--8--8----5--5--5--5--3--5--7--7--7--7----7--7--7--5--7--8--8--8--8----5--5--5--5--3--5--0--0--0-0--|
F#|--8--8--8--8----5--5--5--5--3--5--5--5--5--5----7--7--7--5--7--8--8--8--8----5--5--5--5--3--5--0--0--0-0--|
 B|--8--8--8--8----5--5--5--5--3--5----------------7--7--7--5--7--8--8--8--8----5--5--5--5--3--5--0--0--0-0--|

C#|--------------|
G#|--------------|
 E|--------------|
 B|--0--0--0--0--|
F#|--0--0--0--0--|
 B|--0--0--0--0--|

[Outro] Guitar 1:
"But in the pouring rain, I never felt like that..."
C#|--------------------------------------------------------------------------------------------------|
G#|--6--6--6--6--6--6--6--6--6--5--5--5--5--5--5--5-10-10-10-10-10-10-10-10-10--8--8--8--8--8--8--8--|
 E|--7--7--7--7--7--7--7--7--7--7--7--7--7--7--7--7--7--7--7--7--7--7--7--7--7--7--7--7--7--7--7--7--|
 B|--------------------------------------------------------------------------------------------------|
F#|--------------------------------------------------------------------------------------------------|
 B|--------------------------------------------------------------------------------------------------|(x2)

[Outro Breakdown] Guitar 2:
"Just Walk Away While You Can, Just Walk Away..."
C#|--------------------|--------------------|-----------------------|
G#|--------------------|--------------------|-----------------------|
 E|--------------------|--------------------|-----------------------|
 B|--------------------|--------------------|-----------------------|
F#|--------------------|--------------------|-----------------------|
 B|--12-12-12-12b13p0--|--12-0--12h13p12p0--|--12-12-12-12b13p0--0--|


***********************************

| /   Slide up
| \   Slide down
| h   Hammer-on
| p   Pull-off
| b   Bend

***********************************
Suggest correction
Creating personal tab
Creating personal tab
You can edit any tab online and save it as your Personal.

You can edit, replace or remove any tab part or add personal notes – all changes will be seen only by you.

Personal tabs can be accessed anytime from any device, even offline.
Learn more »
Give kudos to tab author, rate the tab!
1 2 3 4 5
comments
print report bad tab
guest
You may want to rate the tab now too:
select rating
Wanna post a correction for this tab? Suggest correction