Oops, an error
Loading. Please wait.

Whiplash tab

version 3
version 3

Whole song

Interactive

121 views 3 this week
no commentswrite comment
1 2 3 4 5
2 more votes to show rating
add to favorites
×
Save as Personal and add changes to this tab that will be seen only by you. Learn more ›
×
You can save this tab as Personal to edit and correct it or add notes. All changes will be seen only by you. Learn more »
launch autoscroll
font size
0
reset
how to read this tab
guitar tuner
edit
Autoscroll
slow
fast
+/-
esc
set tempo
stop
Author
Difficulty
About this tab version
Accurate tuning and includes rhythm guitar. Was this info helpful? Yes No
Tabbed by: Joshua Garcia (joshuag523@aol.com)

Tabs for the song: Whiplash by Silverstein
Please rate and let me know if you have any corrections. Thank you.


Tuning: Custom Tuning (B A D G B E)
As stated here: https://youtu.be/sy80RQwg0-A?t=4m11s


[Intro / Verse]
Guitar 1:
E||-------------------------------|----------------------------------|
B||--------3--------------2----0--|----------------------------------|
G||--------------------2----------|----------------------------------|
D||-----4-------------------------|--------5--------------4-------2--|
A||--2--------------0-------------|-----7--------------5-------3-----|
B||-------------------------------|--5--------------3-------1--------|


E||-------------------------------|----------------------------------|
B||--------3--------------2----0--|-------------------------------2--|
G||--------------------2----------|----------------------------2-----|
D||-----4-------------------------|--------5--------------9----------|
A||--2--------------0-------------|-----7--------------10---0--------|
B||-------------------------------|--5--------------8----------------|


E||-------------------------------|----------------------------------|
B||--------3--------------2----0--|----------------------------------|
G||--------------------2----------|----------------------------------|
D||-----4-------------------------|--------5--------------4-------2--|
A||--2--------------0-------------|-----7--------------5-------3-----|
B||-------------------------------|--5--------------3-------1--------|


E||-------------------------------|----------------------------------------------------------|
B||--------3--------------2----0--|----------------------------------------------------------|
G||--------------------2----------|----------------------------------------------------------|
D||-----4-------------------------|--------5-------------------------------------------------|
A||--2--------------0-------------|-----7----------------------------------------------------|
B||-------------------------------|--5--------------8-8-8-8-8-8-8-8-10-10-10-10-10-10-10-10--|


Guitar 2:
E||-------------------------------|----------------------------------|
B||-------------------------------|----------------------------------|
G||-------------------------------|----------------------------------|
D||-------------------------------|----------------------------------|
A||-------------------------------|----------------------------------|
B||-------------------------------|----------------------------------|


E||-------------------------------|----------------------------------|
B||------------5---7----5---------|------------5---7----5------------|
G||------6---7--------------------|------6---7---------------6---7---|
D||--7----------------------------|--7-------------------------------|
A||-------------------------------|----------------------------------|
B||-------------------------------|----------------------------------|


E||-------------------------------|----------------------------------|
B||-------------------------------|----------------------------------|
G||-------------------------------|----------------------------------|
D||-------------------------------|----------------------------------|
A||-------------------------------|----------------------------------|
B||-------------------------------|----------------------------------|


E||-------------------------------|----------------------------------------------------------|
B||------------5---7----5---------|------------5---7----5---5-5-5-5-5-5-5-5------------------|
G||------6---7--------------------|------6---7------------------------------7-7-7-7-7-7-7-7--|
D||--7----------------------------|--7-------------------------------------------------------|
A||-------------------------------|----------------------------------------------------------|
B||-------------------------------|----------------------------------------------------------|



[Pre-Chorus]
Guitar 1:
E||-----------------------------------------------|-----------------------------------------------|
B||-----------------------------------------------|-----------------------------------------------|
G||-----------------------------------------------|-----------------------------------------------|
D||-----------------------------------------------|-----------------------------------------------|
A||-----------------------------------------------|-----------------------------------------------|
B||--12-12-12-12-12b13-0----0-12----0-12/13\12-0--|--12-12-12-12-12b13-0----0-12----0-12/13\12-0--|


E||-----------------------------------------------|-----------------------------------------------|
B||-----------------------------------------------|-----------------------------------------------|
G||-----------------------------------------------|-----------------------------------------------|
D||-----------------------------------------------|-----------------------------------------------|
A||-----------------------------------------------|-----------------------------------------------|
B||--12-12-12-12-12b13-0----0-12----0-12/13\12-0--|--12-12-12-12-12b13-0--------------------------|



[Chorus]
Guitar 1:
E||-----------------------------------------------------------------|
B||-----------------------------------------------------------------|
G||-----------------------------------------------------------------|
D||-----------------------------------------------------------------|
A||--10---10---10-10---10---10--10-9---7---7---7-7---7---7---7-5----|
B||--8----8----8--8----8----8---8--7---5---5---5-5---5---5---5-3----|


E||-----------------------------------------------------------|
B||-----------------------------------------------------------|
G||-----------------------------------------------------------|
D||-----------------------------------------------------------|
A||--5---2---2-2---2---2---5-5---5---2---2-2---2---2-9-9-9-9--|
B||--3---0---0-0---0---0---3-3---3---0---0-0---0---0-7-7-7-7--|


E||-----------------------------------------------------------------|
B||-----------------------------------------------------------------|
G||-----------------------------------------------------------------|
D||-----------------------------------------------------------------|
A||--10---10---10-10---10---10--10-9---7---7---7-7---7---7---7-5----|
B||--8----8----8--8----8----8---8--7---5---5---5-5---5---5---5-3----|


E||-----------------------------------------------------------|
B||-----------------------------------------------------------|
G||--------------------------------------------------------2--|
D||-----------------------------------------------------------|
A||--5---2---2-2---2---2---5-5---5---2---2-2---2---2-2h3h5----|
B||--3---0---0-0---0---0---3-3---3---0---0-0---0---0----------|


Guitar 2:
E||--5-5-5-5-5-5-5-5-5-5-5-5-5-2---2---2-2-2-2-2-2-2-2-2-2-2----|
B||--3-3-3-3-3-3-3-3-3-3-3-3-3-3---3---3-3-3-3-3-3-3-3-3-3-3-2--|
G||----------------------------------------------------------4--|
D||-------------------------------------------------------------|
A||-------------------------------------------------------------|
B||-------------------------------------------------------------|


E||-------------------------------------------------------------------|
B||--2---3-3-3-3-3-3-3-3-3-3-3-5---5---7-7-7-7-7-7-7-7-7-7-7-7-7-7-7--|
G||--4---4-4-4-4-4-4-4-4-4-4-4-7---7---7-7-7-7-7-7-7-7-7-7-7-7-7-7-7--|
D||-------------------------------------------------------------------|
A||-------------------------------------------------------------------|
B||-------------------------------------------------------------------|


E||--5-5-5-5-5-5-5-5-5-5-5-5-5-2---2---2-2-2-2-2-2-2-2-2-2-2----|
B||--3-3-3-3-3-3-3-3-3-3-3-3-3-3---3---3-3-3-3-3-3-3-3-3-3-3-2--|
G||----------------------------------------------------------4--|
D||-------------------------------------------------------------|
A||-------------------------------------------------------------|
B||-------------------------------------------------------------|


E||-------------------------------------------------------------------|
B||--2---3-3-3-3-3-3-3-3-3-3-3-5---5---7-7-7-7-7-7-7-7-7-7-7-7-5------|
G||--4---4-4-4-4-4-4-4-4-4-4-4-7---7---7-7-7-7-7-7-7-7-7-7-7-----7-6--|
D||-------------------------------------------------------------------|
A||-------------------------------------------------------------------|
B||-------------------------------------------------------------------|



[Verse]
Guitar 1:
E||-------------------------------|----------------------------------|
B||--------3--------------2----0--|----------------------------------|
G||--------------------2----------|----------------------------------|
D||-----4-------------------------|--------5--------------4-------2--|
A||--2--------------0-------------|-----7--------------5-------3-----|
B||-------------------------------|--5--------------3-------1--------|


E||-------------------------------|----------------------------------------------------------|
B||--------3--------------2----0--|----------------------------------------------------------|
G||--------------------2----------|----------------------------------------------------------|
D||-----4-------------------------|--------5-------------------------------------------------|
A||--2--------------0-------------|-----7----------------------------------------------------|
B||-------------------------------|--5--------------8-8-8-8-8-8-8-8-10-10-10-10-10-10-10-10--|


Guitar 2:
E||-------------------------------|----------------------------------|
B||-------------------------------|----------------------------------|
G||-------------------------------|----------------------------------|
D||-------------------------------|----------------------------------|
A||-------------------------------|----------------------------------|
B||-------------------------------|----------------------------------|


E||-------------------------------|----------------------------------------------------------|
B||------------5---7----5---------|------------5---7----5---5-5-5-5-5-5-5-5------------------|
G||------6---7--------------------|------6---7------------------------------7-7-7-7-7-7-7-7--|
D||--7----------------------------|--7-------------------------------------------------------|
A||-------------------------------|----------------------------------------------------------|
B||-------------------------------|----------------------------------------------------------|


Guitar 2 (Dub):
E||-------------------------------------------------------------------|
B||-------------------------------------------------------------------|
G||-------------------------------------------------------------------|
D||-------------------------------------------------------------------|
A||--2-2-2-2-2-2-2-2-2-2-2-2-2-2-2-2-0-0-0-0-0-0-0-0-0-0-0-0-0-0-0-0--|
B||-------------------------------------------------------------------|
     . . . . . . . . . . . . . . . . . . . . . . . . . . . . . . . .


S||-------------------------------------------------------------------|
B||-------------------------------------------------------------------|
G||-------------------------------------------------------------------|
D||-------------------------------------------------------------------|
A||-------------------------------------------------------------------|
B||--5-5-5-5-5-5-5-5-5-5-5-5-5-5-5-5-3-3-3-3-3-3-3-3-1-1-1-1-1-1-1-1--|
     . . . . . . . . . . . . . . . . . . . . . . . . . . . . . . . .


E||-------------------------------------------------------------------|
B||-------------------------------------------------------------------|
G||-------------------------------------------------------------------|
D||-------------------------------------------------------------------|
A||--2-2-2-2-2-2-2-2-2-2-2-2-2-2-2-2-0-0-0-0-0-0-0-0-0-0-0-0-0-0-0-0--|
B||-------------------------------------------------------------------|
     . . . . . . . . . . . . . . . . . . . . . . . . . . . . . . . .


S||-----------------------------------|
B||-----------------------------------|
G||-----------------------------------|
D||-----------------------------------|
A||-----------------------------------|
B||--5-5-5-5-5-5-5-5-5-5-5-5-5-5-5-5--|
     . . . . . . . . . . . . . . . .



[Pre-Chorus]
Guitar 1:
E||-----------------------------------------------|-----------------------------------------------|
B||-----------------------------------------------|-----------------------------------------------|
G||-----------------------------------------------|-----------------------------------------------|
D||-----------------------------------------------|-----------------------------------------------|
A||-----------------------------------------------|-----------------------------------------------|
B||--12-12-12-12-12b13-0----0-12----0-12/13\12-0--|--12-12-12-12-12b13-0----0-12----0-12/13\12-0--|


E||-----------------------------------------------|-----------------------------------------------|
B||-----------------------------------------------|-----------------------------------------------|
G||-----------------------------------------------|--------------------------------------------2--|
D||-----------------------------------------------|-----------------------------------------------|
A||-----------------------------------------------|--------------------------------------2h3h5----|
B||--12-12-12-12-12b13-0----0-12----0-12/13\12-0--|--12-12-12-12-12b13-0--------------------------|


Guitar 2:
E||-----------------------------------------------|------------------------------------------------|
B||-----------------------------------------------|------------------------------------------------|
G||-----------------------------------------------|------------------------------------------------|
D||-----------------------------------------------|------------------------------------------------|
A||--14\------------------------------------------|------------------------------------14-----14\--|
B||--12\------------------------------------------|------------------------------------12-----12\--|


S||-----------------------------------------------|------------------------------------------------|
B||-----------------------------------------------|------------------------------------------------|
G||-----------------------------------------------|------------------------------------------------|
D||-----------------------------------------------|------------------------------------------------|
A||-----------------------------------------------|------------------------------------------------|
B||-----------------------------------------------|------------------------------------------------|



[Chorus]
Guitar 1:
E||-----------------------------------------------------------------|
B||-----------------------------------------------------------------|
G||-----------------------------------------------------------------|
D||-----------------------------------------------------------------|
A||--10---10---10-10---10---10--10-9---7---7---7-7---7---7---7-5----|
B||--8----8----8--8----8----8---8--7---5---5---5-5---5---5---5-3----|


E||-----------------------------------------------------------|
B||-----------------------------------------------------------|
G||-----------------------------------------------------------|
D||-----------------------------------------------------------|
A||--5---2---2-2---2---2---5-5---5---2---2-2---2---2-9-9-9-9--|
B||--3---0---0-0---0---0---3-3---3---0---0-0---0---0-7-7-7-7--|


E||-----------------------------------------------------------------|
B||-----------------------------------------------------------------|
G||-----------------------------------------------------------------|
D||-----------------------------------------------------------------|
A||--10---10---10-10---10---10--10-9---7---7---7-7---7---7---7-5----|
B||--8----8----8--8----8----8---8--7---5---5---5-5---5---5---5-3----|


E||-------------------------------------------------|
B||-------------------------------------------------|
G||-------------------------------------------------|
D||----------------------------------------------5--|
A||--5---2---2-2---2---2---5-5---5---2---2-2---2-2--|
B||--3---0---0-0---0---0---3-3---3---0---0-0---0----|


Guitar 2:
E||--5-5-5-5-5-5-5-5-5-5-5-5-5-2---2---2-2-2-2-2-2-2-2-2-2-2----|
B||--3-3-3-3-3-3-3-3-3-3-3-3-3-3---3---3-3-3-3-3-3-3-3-3-3-3-2--|
G||----------------------------------------------------------4--|
D||-------------------------------------------------------------|
A||-------------------------------------------------------------|
B||-------------------------------------------------------------|


E||-------------------------------------------------------------------|
B||--2---3-3-3-3-3-3-3-3-3-3-3-5---5---7-7-7-7-7-7-7-7-7-7-7-7-7-7-7--|
G||--4---4-4-4-4-4-4-4-4-4-4-4-7---7---7-7-7-7-7-7-7-7-7-7-7-7-7-7-7--|
D||-------------------------------------------------------------------|
A||-------------------------------------------------------------------|
B||-------------------------------------------------------------------|


E||--5-5-5-5-5-5-5-5-5-5-5-5-5-2---2---2-2-2-2-2-2-2-2-2-2-2----|
B||--3-3-3-3-3-3-3-3-3-3-3-3-3-3---3---3-3-3-3-3-3-3-3-3-3-3-2--|
G||----------------------------------------------------------4--|
D||-------------------------------------------------------------|
A||-------------------------------------------------------------|
B||-------------------------------------------------------------|


E||---------------------------------------------------|
B||--2---3-3-3-3-3-3-3-3-3-3-3-5---5---7-7-7-7-7-7-7--|
G||--4---4-4-4-4-4-4-4-4-4-4-4-7---7---7-7-7-7-7-7-7--|
D||---------------------------------------------------|
A||---------------------------------------------------|
B||---------------------------------------------------|



[Bridge]
Guitar 1:
E||-------------------------------------|--------------------------------------|
B||-------------------------------------|--------------------------------------|
G||-------------------------------------|--------------------------------------|
D||-------------------------------------|--------------------------------------|
A||--10---10---10-10-----7--7--7--5--7--|--10---10---10-10-----9--9--9--7--9---|
B||--8----8----8--8------5--5--5--3--5--|--12---12---12-12-----7--7--7--5--7---|


E||-------------------------------------|---------------------------------------|
B||-------------------------------------|---------------------------------------|
G||-------------------------------------|----------------------4---4-4---4---4--|
D||-------------------------------------|----------------------4---4-4---4---4--|
A||--10---10---10-10-----7--7--7--5--7--|--2---2---2-2---------2---2-2---2---2--|
B||--8----8----8--8------5--5--5--3--5--|--0---0---0-0--------------------------|


Guitar 2:
E||-----------------------------------|------------------------------------|
B||--3-3-3-3-3-3-3-3-3-2-2-2-2-2-2-2--|--7-7-7-7-7-7-7-7-7-5-5-5-5-5-5-5-5-|
G||--4-4-4-4-4-4-4-4-4-4-4-4-4-4-4-4--|--7-7-7-7-7-7-7-7-7-7-7-7-7-7-7-7-7-|
D||-----------------------------------|------------------------------------|
A||-----------------------------------|------------------------------------|
B||-----------------------------------|------------------------------------|


E||-----------------------------------|-----------------------------------|
B||--3-3-3-3-3-3-3-3-3-2-2-2-2-2-2-2--|--7-7-7-7-7-7-7-7-7-7-7-7-7-7-7-7--|
G||--4-4-4-4-4-4-4-4-4-4-4-4-4-4-4-4--|--7-7-7-7-7-7-7-7-7-7-7-7-7-7-7-7--|
D||-----------------------------------|-----------------------------------|
A||-----------------------------------|-----------------------------------|
B||-----------------------------------|-----------------------------------|



Guitar 1:
E||-----------------------------------------------|-----------------------------------------------|
B||-----------------------------------------------|-----------------------------------------------|
G||-----------------------------------------------|-----------------------------------------------|
D||-----------------------------------------------|-----------------------------------------------|
A||-----------------------------------------------|-----------------------------------------------|
B||--12-12-12-12-12b13-0----0-12----0-12/13\12-0--|--12-12-12-12-12b13-0----0-12----0-12/13\12-0--|


E||-----------------------------------------------|-----------------------------------------------|
B||-----------------------------------------------|-----------------------------------------------|
G||-----------------------------------------------|-----------------------------------------------|
D||-----------------------------------------------|-----------------------------------------------|
A||-----------------------------------------------|-----------------------------------------------|
B||--12-12-12-12-12b13-0----0-12----0-12/13\12-0--|--12-12-12-12-12b13-0----3-5-7-8---------------|



[Breakdown]
Guitar 1/2:
E||--------------------------------------------|--------------------------------------------|
B||--------------------------------------------|--------------------------------------------|
G||--------------------------------------------|--------------------------------------------|
D||--------------------------------------------|--------------------------------------------|
A||--------------------------------------------|--------------------------------------------|
B||--12-12-12-12-12\-0------12---0-12/13\12-0--|--12-12-12-12-12\-0------12---0-12/13\12-0--|


E||--------------------------------------------|--------------------------------------------|
B||--------------------------------------------|--------------------------------------------|
G||--------------------------------------------|--------------------------------------------|
D||--------------------------------------------|--------------------------------------------|
A||--------------------------------------------|--------------------------------------------|
B||------------------0------12---0-12/13\12-0--|--12-12-12-12-12\-0------12---0-3-5-7-8-----|


E||--------------------------------------------|--------------------------------------------|
B||--------------------------------------------|--------------------------------------------|
G||--------------------------------------------|--------------------------------------------|
D||--------------------------------------------|--------------------------------------------|
A||--------------------------------------------|--------------------------------------------|
B||------------------0------12---0-12/13\12-0--|--12-12-12-12-12\-0------12---0-12/13\12-0--|


E||--------------------------------------------|--------------------------------------------|
B||--------------------------------------------|--------------------------------------------|
G||--------------------------------------------|--------------------------------------------|
D||--------------------------------------------|--------------------------------------------|
A||--------------------------------------------|--------------------------------------------|
B||------------------0------12---0-12/13\12-0--|--12-12-12-12-12\-0------12---0-3-5-7-8-----|


E||--------------------------|
B||--------------------------|
G||--------------------------|
D||--------------------------|
A||--2------5------9-----10--|
B||--0------3------7-----8---|



[Chorus]
Guitar 1:
E||-----------------------------------------------------------|
B||-----------------------------------------------------------|
G||-----------------------------------------------------------|
D||-----------------------------------------------------------|
A||------------------------------------------------------x-5--|
B||------------------------------------------------------x-3--|


Guitar 2:
E||--5-5-5-5-5-5-5-5-5-5-5-5-5-2---2---2-2-2-2-2-2-2-2-2-2-2--|
B||--3-3-3-3-3-3-3-3-3-3-3-3-3-3---3---3-3-3-3-3-3-3-3-3-3-3--|
G||-----------------------------------------------------------|
D||-----------------------------------------------------------|
A||-----------------------------------------------------------|
B||-----------------------------------------------------------|



Guitar 1:
E||-----------------------------------------------------------|
B||-----------------------------------------------------------|
G||-----------------------------------------------------------|
D||-----------------------------------------------------------|
A||--5---2---2-2---2---2---5-5---5---2---2-2---2---2-9-9-9-9--|
B||--3---0---0-0---0---0---3-3---3---0---0-0---0---0-7-7-7-7--|


E||----------------------------------------------------------------|
B||----------------------------------------------------------------|
G||----------------------------------------------------------------|
D||----------------------------------------------------------------|
A||--10---10---10-10---10---10---10-9---7---7---7-7---7---7---7-5--|
B||--8----8----8--8----8----8----8--7---5---5---5-5---5---5---5-3--|


E||-------------------------------------------------|
B||-------------------------------------------------|
G||-------------------------------------------------|
D||-------------------------------------------------|
A||--5---2---2-2---2---2---5-5---5---2---2-2-2-2-2--|
B||--3---0---0-0---0---0---3-3---3---0---0-0-0-0-0--|


Guitar 2:
E||--------------------------------------------------------------------------|
B||--2----2---3-3-3-3-3-3-3-3-3-3-3-5----5----7-7-7-7-7-7-7-7-7-7-7-7-7-7-7--|
G||--4----4---4-4-4-4-4-4-4-4-4-4-4-7----7----7-7-7-7-7-7-7-7-7-7-7-7-7-7-7--|
D||--------------------------------------------------------------------------|
A||--------------------------------------------------------------------------|
B||--------------------------------------------------------------------------|


E||--5-5-5-5-5-5-5-5-5-5-5-5-5-2---2---2-2-2-2-2-2-2-2-2-2-2----|
B||--3-3-3-3-3-3-3-3-3-3-3-3-3-3---3---3-3-3-3-3-3-3-3-3-3-3-2--|
G||----------------------------------------------------------4--|
D||-------------------------------------------------------------|
A||-------------------------------------------------------------|
B||-------------------------------------------------------------|


E||---------------------------------------------------|
B||--2---3-3-3-3-3-3-3-3-3-3-3-5---5---7-7-7-7-7-7-7--|
G||--4---4-4-4-4-4-4-4-4-4-4-4-7---7---7-7-7-7-7-7-7--|
D||---------------------------------------------------|
A||---------------------------------------------------|
B||---------------------------------------------------|



[Outro]
Guitar 1:
E||-------------------------------------|--------------------------------------|
B||-------------------------------------|--------------------------------------|
G||-------------------------------------|--------------------------------------|
D||-------------------------------------|--------------------------------------|
A||--10---10---10-10-----7--7--7--5--7--|--10---10---10-10-----9--9--9--7--9---|
B||--8----8----8--8------5--5--5--3--5--|--12---12---12-12-----7--7--7--5--7---|


E||-------------------------------------|---------------------------------------|
B||-------------------------------------|---------------------------------------|
G||-------------------------------------|----------------------4---4-4---4---4--|
D||-------------------------------------|----------------------4---4-4---4---4--|
A||--10---10---10-10-----7--7--7--5--7--|--2---2---2-2---------2---2-2---2---2--|
B||--8----8----8--8------5--5--5--3--5--|--0---0---0-0--------------------------|


Guitar 2:
E||-----------------------------------|------------------------------------|
B||--3-3-3-3-3-3-3-3-3-2-2-2-2-2-2-2--|--7-7-7-7-7-7-7-7-7-5-5-5-5-5-5-5-5-|
G||--4-4-4-4-4-4-4-4-4-4-4-4-4-4-4-4--|--7-7-7-7-7-7-7-7-7-7-7-7-7-7-7-7-7-|
D||-----------------------------------|------------------------------------|
A||-----------------------------------|------------------------------------|
B||-----------------------------------|------------------------------------|


E||-----------------------------------|-----------------------------------|
B||--3-3-3-3-3-3-3-3-3-2-2-2-2-2-2-2--|--7-7-7-7-7-7-7-7-7-7-7-7-7-7-7-7--|
G||--4-4-4-4-4-4-4-4-4-4-4-4-4-4-4-4--|--7-7-7-7-7-7-7-7-7-7-7-7-7-7-7-7--|
D||-----------------------------------|-----------------------------------|
A||-----------------------------------|-----------------------------------|
B||-----------------------------------|-----------------------------------|


Guitar 1:
E||-----------------------------------------------|----------------------------|
B||-----------------------------------------------|----------------------------|
G||-----------------------------------------------|----------------------------|
D||-----------------------------------------------|----------------------------|
A||-----------------------------------------------|----------------------------|
B||--12-12-12-12-12b13-0----0-12----0-12/13\12-0--|--12-12-12-12-12b13-0----0--|





*****************************
-Tablature Legend-

h   hammer-on
p   pull-off
b   bend
pb  pre-bend
r   release bend
~   hold / vibrato
.   palm mute
/   slide up
\   slide down
*   pinch harmonic
'   natural harmonic
x   mute note
T   tap

*****************************

            
            
Suggest correction
Creating personal tab
Creating personal tab
You can edit any tab online and save it as your Personal.

You can edit, replace or remove any tab part or add personal notes – all changes will be seen only by you.

Personal tabs can be accessed anytime from any device, even offline.
Learn more »
Give kudos to tab author, rate the tab!
1 2 3 4 5
comments
print report bad tab
guest
You may want to rate the tab now too:
select rating
Wanna post a correction for this tab? Suggest correction