Oops, an error
Loading. Please wait.

Worlds Apart ukulele

version 1
version 1

Whole song

Interactive

32 views 1 this week
no commentswrite comment
1 2 3 4 5
3 more votes to show rating
add to favorites
×
Save as Personal and add changes to this tab that will be seen only by you. Learn more ›
×
You can save this tab as Personal to edit and correct it or add notes. All changes will be seen only by you. Learn more »
launch autoscroll
font size
0
reset
transpose
0
reset
display chords
guitar tuner
edit
Autoscroll
slow
fast
+/-
esc
set tempo
stop
Difficulty
Strumming
There is no strumming pattern for this song yet. and get +5 IQ
WORLDS APART - silverstein
from the album "arrivals and departures"

Tabbed by: Byron Andrada
Email: spank_ie05@yahoo.com

This is how my band play this song..please listen
to the song while following the tab,importantly 
on the strum part...

hope you like it... BASELINE DRIVE RULES!!! CHEERS!!!
TUNING: D#
	
verse1: Lying all alone....
D#|--0-----0-------------0---------------------------|
A#|---3-----3----3------3-2--------------------------|
F#|----2-----2----2-0--------------------------------|
C#|--------------------------------------------------|
G#|--------------------------------------------------|
D#|--------------------------------------------------|

D#|--0-----0-----------------------------------------|
A#|---3-----3----3-----------------------------------|
F#|----2-----2----2-0--------------------------------|
C#|---------------------2-2-2-2--2-2-2-2-------------|
G#|---------------------2-2-2-2--2-2-2-2-------------|
D#|---------------------3-3-3-3--3-3-3-3-------------|

refrain:
guitar1  what do i think....
D#|--------------------------------------------------|
A#|--------------------------------------------------|
F#|-----------7-7-7-7--------------------------------|
C#|--9-9-9-9--7-7-7-7--7-7-7-7--5-5-5-5--------------|2x
G#|--9-9-9-9--5-5-5-5--7-7-7-7--5-5-5-5--------------|
D#|--7-7-7-7-----------5-5-5-5--3-3-3-3--------------|
guitar2
D#|--------------------------------------------------|
A#|--------------------------------------------------|
F#|--7-6---------------------------------------------|
C#|------7----7-9-7----7-5-4----2-4------------------|2x
G#|---------------------------------5----------------|
D#|--------------------------------------------------|


guitar1  I don't want to be...
D#|--------------------------------------------------|
A#|--------------------------------------------------|
F#|----------------77777777777-----------------------|
C#|--44444--55555--77777777777-----------------------|
G#|--44444--55555--55555555555-----------------------|
D#|--22222--33333------------------------------------|
    pm....................
guitar2
D#|--------------------------------------------------|
A#|--------------------------------------------------|
F#|--6--9---7-7/11--7--------------------------------|
C#|--------------------------------------------------|
G#|--------------------------------------------------|
D#|--------------------------------------------------|


guitar1  I won't be here.... 
D#|--------------------------------------------------|
A#|--------------------------------------------------|
F#|--------------------------------------------------|
C#|--44444--55555--77777777777-7---------------------|
G#|--44444--55555--77777777777-7---------------------|
D#|--22222--33333--55555555555-5---------------------|
    pm...................
guitar2
D#|--------------------------------------------------|
A#|--------------------------------------------------|
F#|--6--9---7-7/11--9--------------------------------|
C#|--------------------------------------------------|
G#|--------------------------------------------------|
D#|--------------------------------------------------|


chorus:
guitar1  I'll follow through....
D#|--------------------------------------------------|
A#|--------------------------------------------------|
F#|--7-7-7-7-----------------------------------------|
C#|--7-7-7-7-5-5-5-5-9-9-7-7--5-5-5-5--5-5-5-5-------|
G#|--5-5-5-5-5-5-5-5-9-9-7-7--5-5-5-5--5-5-5-5-------|
D#|----------3-3-3-3-7-7-5-5--3-3-3-3--3-3-3-3-------|
guitar2
D#|----------------101010999---------------------------|
A#|-------------------------10-------------------------|
F#|--7/14\12\11\7--------------14141412121211-121197---|
C#|--x--x--x--x-x--------------------------------------|
G#|--5/12\10\9-\5--------------------------------------|
D#|----------------------------------------------------|


refrain:
guitar1  you read me like....
|--------------------------------------------------|
|--------------------------------------------------|
|-----------7-7-7-7--------------------------------|
|--9-9-9-9--7-7-7-7--7-7-7-7--5-5-5-5--------------|2x
|--9-9-9-9--5-5-5-5--7-7-7-7--5-5-5-5--------------|
|--7-7-7-7-----------5-5-5-5--3-3-3-3--------------|
guitar2
|--------------------------------------------------|
|--------------------------------------------------|
|--7-6---------------------------------------------|
|------7----7-9-7----7-5-4----2-4------------------|2x
|---------------------------------5----------------|
|--------------------------------------------------|


guitar1  these old habits die....
|--------------------------------------------------|
|--------------------------------------------------|
|----------------77777777777-----------------------|
|--44444--55555--77777777777-----------------------|
|--44444--55555--55555555555-----------------------|
|--22222--33333------------------------------------|
    pm....................
guitar2
|--------------------------------------------------|
|--------------------------------------------------|
|--6--9---7-7/11--7--------------------------------|
|--------------------------------------------------|
|--------------------------------------------------|
|--------------------------------------------------|


guitar1  there's no point in....
|--------------------------------------------------|
|--------------------------------------------------|
|--------------------------------------------------|
|--44444--55555--77777777777-7---------------------|
|--44444--55555--77777777777-7---------------------|
|--22222--33333--55555555555-5---------------------|
    pm...................
guitar2
|--------------------------------------------------|
|--------------------------------------------------|
|--6--9---7-7/11--9--------------------------------|
|--------------------------------------------------|
|--------------------------------------------------|
|--------------------------------------------------|


chorus:
guitar1  I'll follow through....
|----------------------------------------------------|
|----------------------------------------------------|
|--7-7-7-7-----------------------------------x-x-x---|
|--7-7-7-7-5-5-5-5-9-9-7-7--5-5-5-5-5-5-5-5--x-x-x---|
|--5-5-5-5-5-5-5-5-9-9-7-7--5-5-5-5-5-5-5-5--x-x-x---|
|----------3-3-3-3-7-7-5-5--3-3-3-3-3-3-3-3----------|
guitar2
|----------------101010999---------------------------|
|-------------------------10-------------------------|
|--7/14\12\11\7--------------14141412121211-121197---|
|--x--x--x--x-x--------------------------------------|
|--5/12\10\9-\5--------------------------------------|
|----------------------------------------------------|


guitar1  you fill my head with...
|---------------------------------------------------|
|---------------------------------------------------|
|--7-7-7-7--------------------------------------7---|
|--7-7-7-7-5-5-5-5-9-9-7-7--5-5-5-5--5-5-5-5----7---|
|--5-5-5-5-5-5-5-5-9-9-7-7--5-5-5-5--5-5-5-5----5---|
|----------3-3-3-3-7-7-5-5--3-3-3-3--3-3-3-3--------|
guitar2
|----------------101010999---------------------------|
|-------------------------10-------------------------|
|--7/14\12\11\7--------------14141412121211-121197---|
|--x--x--x--x-x--------------------------------------|
|--5/12\10\9-\5--------------------------------------|
|----------------------------------------------------|


verse2:
guitar1
|--0-----0---------------0---------------------------|
|---3-----3----3--------3-2--------------------------|
|----2-----2----2-0----------------------------------|
|----------------------------------------------------|
|----------------------------------------------------|
|----------------------------------------------------|
guitar2
|--------------------------------------------------|
|--------------------------------------------------|
|--7-----------------------------------------------|
|--7-----------------------------------------------|
|--5---5/7-4---7-5-4-2--2/4------------------------|
|--------------------------5-----------------------|


guitar1  so maybe one day....
|--0-----0---------------0---------------------------|
|---3-----3----3--------3-2--------------------------|
|----2-----2----2-0----------------------------------|
|----------------------------------------------------|
|----------------------------------------------------|
|----------------------------------------------------|
guitar2
|----------------------------------------------------|
|----------------------------------------------------|
|--7~------------------------------------------------|
|--7~-------------------------5555555555555-5--------|
|--5~-------------------------5555555555555-5--------|
|-----------------------------3333333333333-3--------|


chorus:
guitar1  I'll follow through....
|-----------------------------------------------------|
|-----------------------------------------------------|
|--7-7-7-7----------------------------------x-x-x-----|
|--7-7-7-7-5-5-5-5-9-9-7-7--5-5-5-5-5-5-5-5-x-x-x-----|
|--5-5-5-5-5-5-5-5-9-9-7-7--5-5-5-5-5-5-5-5-x-x-x-----|
|----------3-3-3-3-7-7-5-5--3-3-3-3-3-3-3-3-----------|
guitar2
|----------------101010999---------------------------|
|-------------------------10-------------------------|
|--7/14\12\11\7--------------14141412121211-121197---|
|--x--x--x--x-x--------------------------------------|
|--5/12\10\9-\5--------------------------------------|
|----------------------------------------------------|


guitar1  you fill my head with...
|-----------------------------------------------------|
|-----------------------------------------------------|
|--7-7-7-7--------------------------------------------|
|--7-7-7-7-5-5-5-5-9-9-7-7--5-5-5-5-5-5-5-5--555555---|
|--5-5-5-5-5-5-5-5-9-9-7-7--5-5-5-5-5-5-5-5--555555---|
|----------3-3-3-3-7-7-5-5--3-3-3-3-3-3-3-3--333333---|
					      pm........
guitar2
|----------------101010999---------------------------|
|-------------------------10-------------------------|
|--7/14\12\11\7--------------14141412121211-121197---|
|--x--x--x--x-x--------------------------------------|
|--5/12\10\9-\5--------------------------------------|
|----------------------------------------------------|


chorus:
guitar1   I'll follow through....
|-----------------------------------------------------|
|-----------------------------------------------------|
|--7-7-7-7----------------------------------x-x-x-----|
|--7-7-7-7-5-5-5-5-9-9-7-7--5-5-5-5-5-5-5-5-x-x-x-----|
|--5-5-5-5-5-5-5-5-9-9-7-7--5-5-5-5-5-5-5-5-x-x-x-----|
|----------3-3-3-3-7-7-5-5--3-3-3-3-3-3-3-3-----------|
guitar2
|----------------101010999---------------------------|
|-------------------------10-------------------------|
|--7/14\12\11\7--------------14141412121211-121197---|
|--x--x--x--x-x--------------------------------------|
|--5/12\10\9-\5--------------------------------------|
|----------------------------------------------------|


guitar1    you fill my head with...
|--------------------------------------------------------|
|--------------------------------------------------------|
|--7-7-7-7------------------------------------x-x-x-7~---|
|--7-7-7-7-5-5-5-5-9-9-7-7--5-5-5-5--5-5-5-5--x-x-x-7~---|
|--5-5-5-5-5-5-5-5-9-9-7-7--5-5-5-5--5-5-5-5--x-x-x-5~---|
|----------3-3-3-3-7-7-5-5--3-3-3-3--3-3-3-3-------------|
guitar2
|----------------101010999---------------------------|
|-------------------------10-------------------------|
|--7/14\12\11\7--------------14141412121211-121197---|
|--x--x--x--x-x--------------------------------------|
|--5/12\10\9-\5--------------------------------------|
|----------------------------------------------------|

legend:
 / = slide up
 \ = slide down		Well that's it! hope you enjoy playing this song...
 X = mute		please rate so i can improve more on making tablatures.
pm = palm mute
 
lyrics:

Lying all alone
wishing you would call
writing all my thoughts
has broken all my bones
you gave it all up
you threw it all away
there's nothing i can do

what do i think you've done
you know its even worse than whats in my head
you don't believe me when i tell you
I don't want to be a fraud
and pretend that everythings fine
I won't be here when you get home
I'm not gonna sit here and die

I'll follow through again this time
I'll swallow swords, spit out my pride
I'll be just fine

you read me like a book
you know i'm running out of ways to
stand up
i wont believe you when you tell me
these old habits die so hard
there's no intervention in sight
there's no point in calling you
we're just gonna stand here and fight

I'll follow through again this time
I'll swallow swords, spit out my pride
I'll be just fine, fine
you fill my head with endless lies
you're killing me, i'm killing time
i'll be just fine

so maybe one day
the pain will go away
and i will see your face
i won't even care
i'm changing all the locks
cause i cant change you

I'll follow through again this time
I'll swallow swords, spit out my pride
I'll be just fine, fine
you fill my head with endless lies
you're killing me, I'm killing time
I'll be just fine (x2)


If you have some suggestions or comments,feel free to PM or email me at spank_ie05@yahoo.com   
                                                      /bon

            
            
Suggest correction
Creating personal tab
Creating personal tab
You can edit any tab online and save it as your Personal.

You can edit, replace or remove any tab part or add personal notes – all changes will be seen only by you.

Personal tabs can be accessed anytime from any device, even offline.
Learn more »
Give kudos to tab author, rate the tab!
1 2 3 4 5
comments
print report bad tab
guest
Wanna post a correction for this tab? Suggest correction