Oops, an error
Loading. Please wait.

Your Sword Versus My Dagger Tab

version 4
version 4

Whole song

Interactive

7,552 views 24 this week
7 commentsread comments
1 2 3 4 5
accurate
x 5
add to favorites
launch autoscroll
font size
0
reset
how to read this tab
guitar tuner
Autoscroll
slow
fast
+/-
esc
set tempo
stop
Help us to improve Ultimate-Guitar.com Take our survey!
×
Author
Difficulty
Tuning
intermediate
D A D G B E
Artist:Silverstein
Song:Your Sword Verses My Dagger
CD:Discovering the Waterfront(2005)
Tabbed by:fret13@columbus.rr.com
Tuning:Dropped D

Ok, I know that there are a gazillion tabs for
this song but this one is 100% and wasn't that 
hard. THIS SONG NEEDS SYNCHRONIZATION TO SOUND RIGHT!
I knew that if i didnt state that then people 
woud think it was wrong but its perfect.
the intro takes getting used to but i can play it 
easily now.
|--|
|--|
|--|
|--|
|--|
|--|
Guitar 1
Intro
|---------------------------------------------------------------|
|---------------------------------------------------------------|
|---------------------------------------------------------------|
|---------------------------------------------------------------|
|---------7-8-7---------7-8-7------------7-8-7---------7-8-7----|
|-0h10h12-------0h10h12-------10-0h10h12-------0h10h12-------10-|

|-------------------------------------------|play all this x2
|-------------------------------------------|
|-10-10-10-10-10-10-10-10-10-10-10-10-12--9-|
|--8--8--8--8--8--8--8--8--8--8--8-10-10-10-|
|--8--8--8--8--8--8--8--8--8--8--8--8-10--7-|
|-------------------------------------------|

Verse
|-------------------------------x2-|
|----------------------------------|
|---------------14-10-10--14-10--9-|
|-0-0-0--8-8-8--12--8--7--12--8-10-|
|-0-0-0--8-8-8--12--8--8--12--8--8-|
|-0-0-0--8-8-8---------------------|

Chorus
|-----------------------------------------------------------------------------|
|-----------------------------------------------------------------------------|
|-----------------------------------------------------------------------------|
|-8-8-8-8-8-8-8-8-8-10-10-10-10-10-10-10-10-----------------------------------|
|-8-8-8-8-8-8-8-8-8-10-10-10-10-10-10-10-10---------7-8-7------------7-8-7----|
|-8-8-8-8-8-8-8-8-8-10-10-10-10-10-10-10-10-0h10h12-------10-0h10h12-------10-|

|-----------------------------------------------------------------------|
|-10-10-10-10-10-10--7--7--7--7--7--7-----------------------------------|
|-10-10-10-10-10-10--9--9--9--9--9--9-----------------------------------|
|--8--8--8--8--8--8-10-10-10-10-10-10-----------------------------------|
|--8--8--8--8--8--8--7--7--7--7--7--7---------7-8-7------------7-8-7----|
|-------------------------------------0h10h12-------10-0h10h12-------10-|

|------------------------------------------------------------------|
|-10-10-10-10-10-10-10-10------------------------------------------|
|-10-10-10-10-10-10-10-10-------------------------10-9-----10-9----|
|--8--8--8--8--8--8--8--8-10-10-10-10-10-10-10-10------10-------10-|
|--8--8--8--8--8--8--8--8-10-10-10-10-10-10-10-10------------------|
|-------------------------10-10-10-10-10-10-10-10------------------|

|-----------------------------------------|
|-----------------------------------------|
|-----------------------------------------|
|-8-8-8-8-8-8-8-8-10-10-10-10-10-10-10-10-|
|-8-8-8-8-8-8-8-8-10-10-10-10-10-10-10-10-|
|-8-8-8-8-8-8-8-8-10-10-10-10-10-10-10-10-|

Verse
|-------------------------------x2-|
|----------------------------------|
|---------------14-10-10--14-10--9-|
|-0-0-0--8-8-8--12--8--7--12--8-10-|
|-0-0-0--8-8-8--12--8--8--12--8--8-|
|-0-0-0--8-8-8---------------------|

Chorus
|-----------------------------------------------------------------------------|
|-----------------------------------------------------------------------------|
|-----------------------------------------------------------------------------|
|-8-8-8-8-8-8-8-8-8-10-10-10-10-10-10-10-10-----------------------------------|
|-8-8-8-8-8-8-8-8-8-10-10-10-10-10-10-10-10---------7-8-7------------7-8-7----|
|-8-8-8-8-8-8-8-8-8-10-10-10-10-10-10-10-10-0h10h12-------10-0h10h12-------10-|

|-----------------------------------------------------------------------|
|-10-10-10-10-10-10--7--7--7--7--7--7-----------------------------------|
|-10-10-10-10-10-10--9--9--9--9--9--9-----------------------------------|
|--8--8--8--8--8--8-10-10-10-10-10-10-----------------------------------|
|--8--8--8--8--8--8--7--7--7--7--7--7---------7-8-7------------7-8-7----|
|-------------------------------------0h10h12-------10-0h10h12-------10-|

|------------------------------------------------------------------|
|-10-10-10-10-10-10-10-10------------------------------------------|
|-10-10-10-10-10-10-10-10-------------------------10-9-----10-9----|
|--8--8--8--8--8--8--8--8-10-10-10-10-10-10-10-10------10-------10-|
|--8--8--8--8--8--8--8--8-10-10-10-10-10-10-10-10------------------|
|-------------------------10-10-10-10-10-10-10-10------------------|

|--------------------------------------------|
|--------------------------------------------|
|--------------------------------------------|
|-8-8-8-8-8-8-8-8-10-10-10-10-10-10-10-10-0~-|
|-8-8-8-8-8-8-8-8-10-10-10-10-10-10-10-10-0~-|
|-8-8-8-8-8-8-8-8-10-10-10-10-10-10-10-10-0~-|

Breakdown
|-----------------------------------x3-|
|--------------------------------------|
|--------------------------------------|
|-\0-0-0-0--0-0--0--0-0-0-0--0-0--0--0-|
|-\0-0-0-0--0-0--0--0-0-0-0--0-0--0--0-|
|-\0-0-0-0--0-0--0--0-0-0-0--0-0--0--0-|
   . . . .  . .  .  . . . .  . .  .  .

|------------------------||--------------------------------------------|
|------------------------||--------------------------------------------|
|------------------------||-7-7-7-7-5-5-5-5-10--9-12-14-14-14-14-14-14-|
|-0-0-0-0--0-0--0--0-8-10||-x-x-x-x-x-x-x-x--x--x--x--x--x--x--x--x--x-|
|-0-0-0-0--0-0--0--0-8-10||-5-5-5-5-3-3-3-3/-8--7-10-12-12-12-12-12-12-|
|-0-0-0-0--0-0--0--0-8-10||--------------------------------------------|

|----------------x4-|
|-------------------|
|-12-12-12-12-14-12-|
|--x--x--x--x--x--x-|
|-10-10-10-10-12-10-|
|-------------------|

Chorus
|-----------------------------------------------------------------------------|
|-----------------------------------------------------------------------------|
|-----------------------------------------------------------------------------|
|-8-8-8-8-8-8-8-8-8-10-10-10-10-10-10-10-10-----------------------------------|
|-8-8-8-8-8-8-8-8-8-10-10-10-10-10-10-10-10---------7-8-7------------7-8-7----|
|-8-8-8-8-8-8-8-8-8-10-10-10-10-10-10-10-10-0h10h12-------10-0h10h12-------10-|

|-----------------------------------------------------------------------|
|-10-10-10-10-10-10--7--7--7--7--7--7-----------------------------------|
|-10-10-10-10-10-10--9--9--9--9--9--9-----------------------------------|
|--8--8--8--8--8--8-10-10-10-10-10-10-----------------------------------|
|--8--8--8--8--8--8--7--7--7--7--7--7---------7-8-7------------7-8-7----|
|-------------------------------------0h10h12-------10-0h10h12-------10-|

|------------------------------------------------------------------|
|-10-10-10-10-10-10-10-10------------------------------------------|
|-10-10-10-10-10-10-10-10-------------------------10-9-----10-9----|
|--8--8--8--8--8--8--8--8-10-10-10-10-10-10-10-10------10-------10-|
|--8--8--8--8--8--8--8--8-10-10-10-10-10-10-10-10------------------|
|-------------------------10-10-10-10-10-10-10-10------------------|

|-----------------------------------------|
|-----------------------------------------|
|-----------------------------------------|
|-8-8-8-8-8-8-8-8-10-10-10-10-10-10-10-10-|
|-8-8-8-8-8-8-8-8-10-10-10-10-10-10-10-10-|
|-8-8-8-8-8-8-8-8-10-10-10-10-10-10-10-10-|

|--------------------|
|--------------------|
|--------------------|
|------------------0-|
|---------7-8-7----0-|
|-0h10h12-------10-0-|
==============================================================================
Guitar 2
Intro
|---------------------------------------x2-|
|------------------------------------------|
|------------------------------------------|
|-7-5---8-8-8-8-8-8-8-8-8-8-3--3--2--2-2-2-|
|-----7-8-8-8-8-8-8-8-8-8-8-3--3--2--2-2-2-|
|-------8-8-8-8-8-8-8-8-8-8-3--3--2--2-2-2-|

Verse
|---------------------------------------|
|---------------------------------------|
|---------------------------5-5-5-5-5-5-|
|-0-0-0--8-8-8--3-3-3-3-3-3-5-5-5-5-5-5-|
|-0-0-0--8-8-8--3-3-3-3-3-3-3-3-3-3-3-3-|
|-0-0-0--8-8-8--3-3-3-3-3-3-------------|

|---------------------------------------|
|---------------------------------------|
|---------------------------------------|
|-0-0-0--8-8-8--3-3-3-3-3-3-2-2-2-2-2-2-|
|-0-0-0--8-8-8--3-3-3-3-3-3-2-2-2-2-2-2-|
|-0-0-0--8-8-8--3-3-3-3-3-3-2-2-2-2-2-2-|

Chorus
|----------------------------------------------x2-|
|-------------------------------------------------|
|-----------------------------------------r-------|
|-8-8-8-8-8-8-8-8-10-10-10-10-10-10-10-10-e-7-5---|
|-8-8-8-8-8-8-8-8-10-10-10-10-10-10-10-10-s-----7-|
|-8-8-8-8-8-8-8-8-10-10-10-10-10-10-10-10-t-------|

|-------------------------------------------------------------------------|
|-------------------------------------------------------------------------|
|-------------------------------------------------------------------------|
|-8-8-8-8-8-8-8-8-10-10-10-10-10-10-10-10-0-0-0-0-0-0-0-0-3-3-3-3-3-3-3-3-|
|-8-8-8-8-8-8-8-8-10-10-10-10-10-10-10-10-0-0-0-0-0-0-0-0-3-3-3-3-3-3-3-3-|
|-8-8-8-8-8-8-8-8-10-10-10-10-10-10-10-10-0-0-0-0-0-0-0-0-3-3-3-3-3-3-3-3-|

|-----------------------------------------|
|-----------------------------------------|
|-----------------------------------------|
|-8-8-8-8-8-8-8-8-10-10-10-10-10-10-10-10-|
|-8-8-8-8-8-8-8-8-10-10-10-10-10-10-10-10-|
|-8-8-8-8-8-8-8-8-10-10-10-10-10-10-10-10-|

Verse
|---------------------------------------|
|---------------------------------------|
|---------------------------5-5-5-5-5-5-|
|-0-0-0--8-8-8--3-3-3-3-3-3-5-5-5-5-5-5-|
|-0-0-0--8-8-8--3-3-3-3-3-3-3-3-3-3-3-3-|
|-0-0-0--8-8-8--3-3-3-3-3-3-------------|

|---------------------------------------|
|---------------------------------------|
|---------------------------------------|
|-0-0-0--8-8-8--3-3-3-3-3-3-2-2-2-2-2-2-|
|-0-0-0--8-8-8--3-3-3-3-3-3-2-2-2-2-2-2-|
|-0-0-0--8-8-8--3-3-3-3-3-3-2-2-2-2-2-2-|

Chorus
|----------------------------------------------x2-|
|-------------------------------------------------|
|-----------------------------------------r-------|
|-8-8-8-8-8-8-8-8-10-10-10-10-10-10-10-10-e-7-5---|
|-8-8-8-8-8-8-8-8-10-10-10-10-10-10-10-10-s-----7-|
|-8-8-8-8-8-8-8-8-10-10-10-10-10-10-10-10-t-------|

|-------------------------------------------------------------------------|
|-------------------------------------------------------------------------|
|-------------------------------------------------------------------------|
|-8-8-8-8-8-8-8-8-10-10-10-10-10-10-10-10-0-0-0-0-0-0-0-0-3-3-3-3-3-3-3-3-|
|-8-8-8-8-8-8-8-8-10-10-10-10-10-10-10-10-0-0-0-0-0-0-0-0-3-3-3-3-3-3-3-3-|
|-8-8-8-8-8-8-8-8-10-10-10-10-10-10-10-10-0-0-0-0-0-0-0-0-3-3-3-3-3-3-3-3-|

|-----------------------------------------|
|-----------------------------------------|
|-----------------------------------------|
|-8-8-8-8-8-8-8-8-10-10-10-10-10-10-10-10-|
|-8-8-8-8-8-8-8-8-10-10-10-10-10-10-10-10-|
|-8-8-8-8-8-8-8-8-10-10-10-10-10-10-10-10-|

Breakdown
|-----------------------------------x3-|
|--------------------------------------|
|--------------------------------------|
|-\0-0-0-0--0-0--0--0-0-0-0--0-0--0--0-|
|-\0-0-0-0--0-0--0--0-0-0-0--0-0--0--0-|
|-\0-0-0-0--0-0--0--0-0-0-0--0-0--0--0-|
   . . . .  . .  .  . . . .  . .  .  .

|------------------------|
|------------------------|
|------------------------|
|-0-0-0-0--0-0--0--0-8-10|
|-0-0-0-0--0-0--0--0-8-10|
|-0-0-0-0--0-0--0--0-8-10|
  . . . .  . .  .  .

|-------------------------------------------------------------------------|
|-------------------------------------------------------------------------|
|-------------------------------------------------------------------------|
|-0-0-0-0-0-0-0-0-0-0-0-0-3-3-3-3-3-3-3-3-3-3-3-3-8-8-8-8-8-8-8-8-8-8-8-8-|
|-0-0-0-0-0-0-0-0-0-0-0-0-3-3-3-3-3-3-3-3-3-3-3-3-8-8-8-8-8-8-8-8-8-8-8-8-|
|-0-0-0-0-0-0-0-0-0-0-0-0-3-3-3-3-3-3-3-3-3-3-3-3-8-8-8-8-8-8-8-8-8-8-8-8-|

|-------------------------|
|-------------------------|
|-------------------------|
|-3-3-3-3-3-3-2-2-2-2-2-2-|
|-3-3-3-3-3-3-2-2-2-2-2-2-|
|-3-3-3-3-3-3-2-2-2-2-2-2-|

Chorus
|----------------------------------------------x2-|
|-------------------------------------------------|
|-----------------------------------------r-------|
|-8-8-8-8-8-8-8-8-10-10-10-10-10-10-10-10-e-7-5---|
|-8-8-8-8-8-8-8-8-10-10-10-10-10-10-10-10-s-----7-|
|-8-8-8-8-8-8-8-8-10-10-10-10-10-10-10-10-t-------|

|-------------------------------------------------------------------------|
|-------------------------------------------------------------------------|
|-------------------------------------------------------------------------|
|-8-8-8-8-8-8-8-8-10-10-10-10-10-10-10-10-0-0-0-0-0-0-0-0-3-3-3-3-3-3-3-3-|
|-8-8-8-8-8-8-8-8-10-10-10-10-10-10-10-10-0-0-0-0-0-0-0-0-3-3-3-3-3-3-3-3-|
|-8-8-8-8-8-8-8-8-10-10-10-10-10-10-10-10-0-0-0-0-0-0-0-0-3-3-3-3-3-3-3-3-|

|-----------------------------------------|
|-----------------------------------------|
|-----------------------------------------|
|-8-8-8-8-8-8-8-8-10-10-10-10-10-10-10-10-|
|-8-8-8-8-8-8-8-8-10-10-10-10-10-10-10-10-|
|-8-8-8-8-8-8-8-8-10-10-10-10-10-10-10-10-|

|---------|
|---------|
|---------|
|-7-5---0-|
|-----7-0-|
|-------0-|
=================================================================================
Thanks
Suggest correction
What's this?
You can suggest a correction to this tab. Community and Mods will review your correction and vote to approve or reject it.
comments
print report bad tab
7 comments total. Showing first comments.
0 reply
guitar_freak91 1,858 wrote on January 17 2007, 05:37 pm

ehh. intro is, its played in the wrong spot and on the wrong strings. sorry man. i'd show you what it is, but i'm too lazy right this second. i'll eventualy get a tab on the internet. most likely GuitarPro. so i hope you have that when i get it up.

0 reply
guitar_freak91 1,858 wrote on January 17 2007, 05:37 pm

intro is off**

0 reply
fret13 2,029 wrote on January 17 2007, 06:13 pm

I knew this was gonna happen and everyone else who wees this tab is gonna think that the intro is wrong but ive seen em live and im sure of it but i guess that i cant make peoples minds up for them. all i have to ask of you is to play it a few times because i know its right but if thats too much than thats too bad. oh well.

guest
You may want to rate the tab now too:
select rating
Please do not post tabs as comments. Select "correction" instead!