Oops, an error
Loading. Please wait.

Your Sword Versus My Dagger Tab

version 5
version 5

Whole song

Interactive

1,771 views 1 this week
no commentswrite comment
1 2 3 4 5
accurate
x 3
add to favorites
launch autoscroll
font size
0
reset
how to read this tab
guitar tuner
Autoscroll
slow
fast
+/-
esc
set tempo
stop
Help us to improve Ultimate-Guitar.com Take our survey!
×
Contributor
Difficulty
Tuning
recklessnick 4,633
novice
D A D G B E
-------------------------------------------------------------------------------
                      YOUR SWORD VS MY DAGGER - Silverstein
-------------------------------------------------------------------------------
Tabbed by: nicholas wong
Email: breakthesilencewakethedead@gmail.com

Tuning: Dropped D 

Intro (x2)

  Guitar 1
e|-------------------------------------------------------------|
B|-------------------------------------------------------------|
G|-------------------------------------------------------------|
D|-------2---3-2------2---3-2---------2---3-2--------2---3-2---|
A|---------0------------0-----3---------0--------------0-----3-|
D|-0h3h5---------0h3h5-----------0h3h5---------0h3h5-----------|
 |Guitar 2
e|-------------------------------------------------------------|
B|-------------------------------------------------------------|
G|-------------------------------------------------------------|
D|-------------------------------------------------------7-5---|
A|-----------------------------------------------------------5-|
D|-------------------------------------------------------------|
  Guitar 1
e|-------------------------------------------------------------------------|
B|-------------------------------------------------------------------------|
G|-------------------------------------------------------------------------|
D|-8-8-8-8-8-8-8-8-8-8-8-8-8-8-8-8-8-3-3-3-3-3-3-3-3-3-3-2-2-2-2-2-2-2-2-2-|
A|-8-8-8-8-8-8-8-8-8-8-8-8-8-8-8-8-8-3-3-3-3-3-3-3-3-3-3-2-2-2-2-2-2-2-2-2-|
D|-8-8-8-8-8-8-8-8-8-8-8-8-8-8-8-8-8-3-3-3-3-3-3-3-3-3-3-2-2-2-2-2-2-2-2-2-|
 |Guitar 2
e|-------------------------------------------------------------------------|
B|-------------------------------------------------------------------------|
G|-10-10-10-10-10-10-10-10-10-10-10-10-10-10-10-10---12--9-9-9-9-9-9-9-9-9-|
D|--x--x--x--x--x--x--x--x--x--x--x--x--x--x--x--x----x--x-x-x-x-x-x-x-x-x-|
A|--8--8--8--8--8--8--8--8--8--8--8--8--8--8--8--8---10--7-7-7-7-7-7-7-7-7-|
D|-------------------------------------------------------------------------|

Verse 

  Both Guitars
e|-----------------------------------------------------------|
B|-----------------------------------------------------------|
G|-----------------------------------------------------------|
D|-0-0-0----8-8-8----3-3-3-3-3-3-3-3-10-10-10-10-10-10-10-10-|
A|-0-0-0----8-8-8----3-3-3-3-3-3-3-3-10-10-10-10-10-10-10-10-|
D|-0-0-0----8-8-8----3-3-3-3-3-3-3-3-10-10-10-10-10-10-10-10-|

e|-----------------------------------------------------|
B|-----------------------------------------------------|
G|-----------------------------------------------------|
D|-0-0-0----8-8-8----3-3-3-3-3-3-3-3-2-2-2-2-2-2-2-2-2-|
A|-0-0-0----8-8-8----3-3-3-3-3-3-3-3-2-2-2-2-2-2-2-2-2-|
D|-0-0-0----8-8-8----3-3-3-3-3-3-3-3-2-2-2-2-2-2-2-2-2-|

Chorus 1 (x2)

  Guitar 1
e|------------------------------------------------------------------------|
B|------------------------------------------------------------------------|
G|------------------------------------------------------------------------|
D|-8-8-8-8-8-8-8-8-10-10-10-10-10-10-10-10--------2---3-2-------2---3-2---|
A|-8-8-8-8-8-8-8-8-10-10-10-10-10-10-10-10----------0-------------0-----3-|
D|-8-8-8-8-8-8-8-8-10-10-10-10-10-10-10-10--0h3h5---------0h3h5-----------|
 |Guitar 2
e|------------------------------------------------------------------------|
B|------------------------------------------------------------------------|
G|------------------------------------------------------------------------|
D|-8-8-8-8-8-8-8-8-10-10-10-10-10-10-10-10--------------------------7-5---|
A|-8-8-8-8-8-8-8-8-10-10-10-10-10-10-10-10------------------------------7-|
D|-8-8-8-8-8-8-8-8-10-10-10-10-10-10-10-10--------------------------------|

Chorus 2

  Both Guitars
e|---------------------------------------------------------------------------|
B|---------------------------------------------------------------------------|
G|---------------------------------------------------------------------------|
D|-8-8-8-8-8-8-8-8-10-10-10-10-10-10-10-10-0-0-0-0-0-0-0-0-3-3-3-3-3-3-3-3-3-|
A|-8-8-8-8-8-8-8-8-10-10-10-10-10-10-10-10-0-0-0-0-0-0-0-0-3-3-3-3-3-3-3-3-3-|
D|-8-8-8-8-8-8-8-8-10-10-10-10-10-10-10-10-0-0-0-0-0-0-0-0-3-3-3-3-3-3-3-3-3-|
    
e|-----------------------------------------|
B|-----------------------------------------|
G|-----------------------------------------|
D|-8-8-8-8-8-8-8-8-10-10-10-10-10-10-10-10-|
A|-8-8-8-8-8-8-8-8-10-10-10-10-10-10-10-10-|
D|-8-8-8-8-8-8-8-8-10-10-10-10-10-10-10-10-|

Bridge

e|------------------|
B|------------------|
G|------------------|
D|------------------|
A|-0-0-0-0-3--0-3-2-|
D|-0-0-0-0-3--0-3-2-|
   . . . . .  . . .
repeat until...
  Guitar 1
e|---------------------|
B|---------------------|
G|---------------------|
D|-8-8-8-8-10-10-10-10-|
A|-8-8-8-8-10-10-10-10-|
D|-8-8-8-8-10-10-10-10-|
  Guitar 2
e|-------------------------|
B|-------------------------|
G|-10-10-10-10-12-12-12-12-|
D|--x--x--x--x--x--x--x--x-|
A|--8--8--8--8-10-10-10-10-|
D|-------------------------|

  Guitar 1
e|-------------------------------------------------------------------|
B|-------------------------------------------------------------------|
G|-------------------------------------------------------------------|
D|-0-0-0-0-0-0-0-0-3-3-3-3-3-3-3-3-8-8-8-8-8-8-8-8-8-3-3-3-3-2-2-2-2-|
A|-0-0-0-0-0-0-0-0-3-3-3-3-3-3-3-3-8-8-8-8-8-8-8-8-8-3-3-3-3-2-2-2-2-|
D|-0-0-0-0-0-0-0-0-3-3-3-3-3-3-3-3-8-8-8-8-8-8-8-8-8-3-3-3-3-2-2-2-2-|
 |Guitar 2
e|----------------------------------------------------------------------|
B|----------------------------------------------------------------------|
G|-7-7-7-7-7-7-7-7-5-5-5-5-5-5-5-5-3-3-3-3-7-7-7-7-10-10-10-10-12-9-9-9-|
D|-x-x-x-x-x-x-x-x-x-x-x-x-x-x-x-x-x-x-x-x-x-x-x-x--x--x--x--x--x-x-x-x-|
A|-5-5-5-5-5-5-5-5-3-3-3-3-3-3-3-3-1-1-1-1-5-5-5-5--8--8--8--8-10-7-7-7-|
D|----------------------------------------------------------------------|


PLS RATE AND COMMENT!


| .  palm-muted
| /  slide up
| \  slide down
| h  hammer-on
| p  pull-off
| ~  vibrato
| +  harmonic
| x  Mute note
===============================================================================
comments
We did not receive enough feedback on this tab! Please rate:
print report bad tab
1 2 3 4 5
I want to post or [tab]
guest
You may want to rate the tab now too:
select rating
Please do not post tabs as comments. Select "correction" instead!