Oops, an error
Loading. Please wait.

Youre All I Have bass

version 1
version 1

Whole song

Interactive

621 views 1 this week
no commentswrite comment
1 2 3 4 5
2 more votes to show rating
add to favorites
×
Save as Personal and add changes to this tab that will be seen only by you. Learn more ›
×
You can save this tab as Personal to edit and correct it or add notes. All changes will be seen only by you. Learn more »
launch autoscroll
font size
0
reset
guitar tuner
edit
Autoscroll
slow
fast
+/-
esc
set tempo
stop
++++++++++++++++++++++++++++++++++
| Silverstein- You're All I Have |
++++++++++++++++++++++++++++++++++


"Sunlights creeping through the blinds..."



Tuning: HalfStep Down (EbADG)


Intro
1.
G||-----------------------------------------|
D||-----------------------------------------|
A||-77~---7-7-----------22~---2-2-----------|
Eb|-----------55~---5-5-----------33~---333-|

Verse
"I wake up in the afternoon..."
2.
G||---------------------------------------------------------------------------------|
D||---------------------------------------------------------------------------------|
A||-77~---7-7-----------22~---2-2-----------77~---7-7-----------22~---2-2-----------|--x2
Eb|-----------55~---5-5-----------33~---333-----------55~---5-5-----------33~---333-|

Pre-Chorus
"Dont pretend you're not the one who's wrong..."
3.
G||-------------------|
D||-------------------|
A||-------------------|
Eb|-00011133-33333333-|

Chorus
"You're keeping me sane..."
4.
G||----------------------------------------------------------------------------|
D||----------------------------------------------------------------------------|
A||---------------------------2x-----------------------------------------------|
Eb|-55535313x--1111111-5553535----1111111-55535313x--1111111-00011133-3333x----|

Verse
"Sunlight's creeping through the blinds.."
5.
G||---------------------------------------------------------------------------------|
D||---------------------------------------------------------------------------------|
A||-77~---7-7-----------22~---2-2-----------77~---7-7-----------22~---2-2-----------|--x2
Eb|-----------55~---5-5-----------33~---333-----------55~---5-5-----------33~---333-|

Pre-Chorus
"Dont pretend you're not the one who's wrong..."
6.
G||-------------------|
D||-------------------|
A||-------------------|
Eb|-00011133-33333333-|

Chorus
"You're keeping me sane..."
7.
G||----------------------------------------------------------------------------|
D||----------------------------------------------------------------------------|
A||---------------------------2x-----------------------------------------------|
Eb|-55535313x--1111111-5553535----1111111-55535313x--1111111-00011133-3333x----|

Bridge
8.
G||---------------------------------------------|
D||---------------------------------------------|
A||-7777-7h9p7x---------0-2222-2h4p2x---------6-|--x2
Eb|--------------5555555---------------3333358--|

"You're all I have..."
9.
G||---------------------------------------------|
D||---------------------------------------------|
A||-7777-7h9p7x---------0-2222-2h4p2x---------6-|--x2
Eb|--------------5555555---------------3333358--|

"Push me down and walk forsaken..."
10.
G||-11/13~----8h9p8-------6~----6h8p6-4~----|
D||-----------------9~----------------------|
A||-----------------------------------------|--x2
Eb|-----------------------------------------|

"Dont you pretend..."
11.
G||-----------------------------------------------------------|
D||-----------------------------------------------------------|
A||-------------------------------------------------------11\-| The last one is an eleven
Eb|-55x----33x----11x----11x----55x----33x----11x----11x------| the others are 1s

"Dont pretend..."
12.
G||-------------------------------------------------------------------|
D||-------------------------------------------------------------------|
A||-------------------------------------------------------------------|
Eb|-55x----533x----311x----111x----155x----533x----311x----111x--00x--|

Pre-Chorus
"Dont pretend"
13.
G||-------------------|
D||-------------------|
A||-------------------|
Eb|-00011133-33333333-|

Chorus
"You're keeping me sane..."
14.
G||----------------------------------------------------------------------------|
D||----------------------------------------------------------------------------|
A||---------------------------2x-----------------------------------------------|
Eb|-55535313x--1111111-5553535----1111111-55535313x--1111111-00011133-33333333-|

Outro
"Dont you pretend..."
15.
G||-------------------------------------------------------------|
D||-------------------------------------------------------------|
A||-------------------------------------------------------------|
Eb|-11x----33x----55x------5555353-11x----33x----55x----5555353-|

"You're keeping me sane..."
16.
G||-------------------------------------------------------------|
D||-------------------------------------------------------------|
A||-------------------------------------------------------------|
Eb|-11x----33x----55x------5555353-11x----33x----55x----5555353-|

"Dont pretend you're not the one who's wrong..." 
17.
G||------------------|
D||------------------|
A||------------------|
Eb|-5x---------------|


Please rate thanks!


Lyrics:


I wake up in the afternoon
Empty walls make up the room
And I'm wishing for one thing
To give myself the strength
to keep myself alive
Long enough to make sure you don't try
To turn out anything like me
Another fraud, another fake

Don't pretend, you're not the one who's wrong
You're keeping me sane, when I'm feeling alone
I wield my heart and my flesh'n'bones
Don't leave me to die by myself
I can't live without you.

Sunlights creeping through the blinds
Calling me from these confines
there's only so many more days
Until you're cast away
From ever seeing me
They won't understand they'll never see
The way you medicate my head
Without you here, I'm left for dead

Without you here

You're all I have
In a world that judges long before it sees.
You're all I have
In a place that hates me and only wants to
Push me down and walk forsaken
Pass the point and then you'll break me
I won't be fine you're all mistaken
Don't pretend you're not the one who's wrong

Don't you pretend
It's gonna be okay
Don't lie, and say
It's better off this way



+++++++++++++++++++++++++++++++++
| Raileff                       |
| Underground__Dora@Hotmail.Com |
+++++++++++++++++++++++++++++++++

            
            
Suggest correction
Creating personal tab
Creating personal tab
You can edit any tab online and save it as your Personal.

You can edit, replace or remove any tab part or add personal notes – all changes will be seen only by you.

Personal tabs can be accessed anytime from any device, even offline.
Learn more »
Give kudos to tab author, rate the tab!
1 2 3 4 5
comments
print report bad tab
guest
You may want to rate the tab now too:
select rating
Wanna post a correction for this tab? Suggest correction