Oops, an error
Loading. Please wait.

Youre All I Have Drum Tab

version 1
version 1

Whole song

Interactive

481 views 1 this week
no commentswrite comment
1 2 3 4 5
please rate
add to favorites
launch autoscroll
font size
0
reset
guitar tuner
Autoscroll
slow
fast
+/-
esc
set tempo
stop
Help us to improve Ultimate-Guitar.com Take our survey!
×
Author
Difficulty
intermediate
-------------------------------------------------------------------------------
			     Silverstein - You're all i have
-------------------------------------------------------------------------------

Tabbed By : nick kelly
e-mail: nick_kelly12345@hotmail.co.uk

key:
H- closed hats
S- snare
B- Bass
C- crash
T- floor tom

\

  1 e + a 2 e + a 3 e + a 4 e + a  
C|--------------------------------|
H|--------------------------------|x3
S|--------------------------------|
B|--------------------------------|

  1 e + a 2 e + a 3 e + a 4 e + a  1 e + a 2 e + a 3 e + a 4 e + a  
C|--------------------------------|0-------------------------------|
H|--------------------------------|--0-0-0---0-0-0-0-0---0-0-0-----|
S|--------------------0---0---0-0-|--------0-----------0-------0-0-|
B|--------------------------------|0---------------0-------0-------|

  1 e + a 2 e + a 3 e + a 4 e + a
C|--------------------------------|
H|0-0-0-0---0-0-0-0-0---0-0-0-----|x3
S|--------0-----------0-------0-0-|
B|0---------------0-------0-------|

then last bar before singing starts play:
  1 e + a 2 e + a 3 e + a 4 e + a
C|--------------------------------|
H|0-0-0-0---0-0-0-0-0---0---0-----|
S|--------0-----------0---0---0-0-|
B|0---------------0---------------|


verse:
          I wake up................
  1 e + a 2 e + a 3 e + a 4 e + a  1 e + a 2 e + a 3 e + a 4 e + a
C|0-------------------------------|--------------------------------|
H|--0-0-0---0-0-0-0-0---0-0-0-----|0-0-0-0---0-0-0-0-0---0---0-----|x17
S|--------0-----------0-------0-0-|--------0-----------0---0---0-0-|
B|0---------------0-------0-------|0---------------0---------------|
            ^^^^^^^^^^^^^^^^                     (on 17th time round chuck
        play this bar four times                  the crash cymbal)
        before u play the next

pre-chorus:
  
  1 e + a 2 e + a 3 e + a 4 e + a  1 e + a 2 e + a 3 e + a 4 e + a 
C|--------------------------------|--------------------------------|
H|--------------------------------|--------------------------------|
S|--------------------------------|--------------------------------|
B|--------------------------------|--------------------------------|

chorus:
  don't pretend......................      
  1 e + a 2 e + a 3 e + a 4 e + a  1 e + a 2 e + a 3 e + a 4 e + a 
C|0-----------0-----------0-------|0-------------------------------|
H|--------------------------------|--------0-----------------------|
S|0-----------0-----------0-------|0-------0-------0-0-0-0-0-0-0-0-|
B|----0---0-------0---0-------0---|----0-------0-------0-------0---|
                                           ^this hi-hat note is with 
                                           the hi-hat loose

  1 e + a 2 e + a 3 e + a 4 e + a  1 e + a 2 e + a 3 e + a 4 e + a 
C|0-------0-------0-------0-------|0-------0-------0-------0-------|
H|--------------------------------|--------------------------------|
S|--------0---------------0-------|--------0---------------0-------|x6
B|0---0-------0---0---0-------0---|----0-------0---0---0-----------|

  1 e + a 2 e + a 3 e + a 4 e + a  1 e + a 2 e + a 3 e + a 4 e + a 
C|0-----------0-----------0-------|--------------------------------|
H|--------------------------------|--------------------------------|
T|--------------------------------|----0---------------------------|
S|0-----------0-----------0-------|--------------------------------|
B|----0---0-------0---0-------0---|0-------------------------------|

verse
------
pre-chorus
------
chorus
------

bridge:
  1 e + a 2 e + a 3 e + a 4 e + a  1 e + a 2 e + a 3 e + a 4 e + a 
C|--------------------------------|--------------------------------|
H|--------------------------------|--------------------------------|
T|0-------0-------0-------0-------|0-------0-------0-------0-------|
S|----------------0---------------|----------------0---------------|
B|0---0---0---0---0---0---0---0---|0---0---0---0---0---0---0---0---|

  1 e + a 2 e + a 3 e + a 4 e + a  1 e + a 2 e + a 3 e + a 4 e + a 
C|--------------------------------|--------------------------------|
H|--------------------------------|------------------------0-------|
T|0-------0-------0-------0-------|0-------0-------0---------------| x6
S|----------------0---------------|----------------0-------0-------|
B|0---0---0---0---0---0---0---0---|0---0---0---0---0---0-------0---|
                                                           ^ 
                                                       loose hi-hat
hi-hat loose
  1 e + a 2 e + a 3 e + a 4 e + a  1 e + a 2 e + a 3 e + a 4 e + a 
C|0-------------------------------|0-------------------------------|
H|0-------0-------0-------0-------|0-------0-------0-------0-------|
S|----------------0---------------|----------------0---------------|x7
B|0---0---------------------------|0---0---------------------------|

  1 e + a 2 e + a 3 e + a 4 e + a
C|0-------------------------------|
H|--------0---------------0-------|
S|0---------------0-------0-------|
B|0---0---------------0-----------|

  1 e + a 2 e + a 3 e + a 4 e + a
C|0-------------------------------|
H|--------0-------0-------0-------|x7
S|--------0-----------------------|
B|0---0---------------0-------0---|


theres a snare role here

chorus
------

and its pretty self-explanitary from here but i will tab more if people want me to

sorry if its not that accurate but its my second drum tab
Suggest correction
Give kudos to tab author, rate the tab!
1 2 3 4 5
comments
print report bad tab
guest
You may want to rate the tab now too:
select rating
Wanna post a correction for this tab? Suggest correction