Oops, an error
Loading. Please wait.

All The Go Inbetweens Tab

version 1
version 1

Intro

Whole song

Interactive

7,991 views 1 this week
3 commentsread comments
1 2 3 4 5
x 3
add to favorites
launch autoscroll
font size
0
reset
how to read this tab
guitar tuner
Autoscroll
slow
fast
+/-
esc
set tempo
stop
Help us to improve Ultimate-Guitar.com Take our survey!
×
Author
Drop D Tuning

All the Go Inbetweens
Silversun Pickups


E|-------------------------------------------------------------|
B|-------------------------------------------------------------|
G|--7-7-7-7-7---7-7-7-7-7---7-7--------------------------------|
D|--7-7-7-7-7---5-5-5-5-5---4-4----7-------4^5^4---------------|
A|--5-5-5-5-5---5-5-5-5-5---5-5--------------------------------|
D|--0-0-0-0-0---0-0-0-0-0---0-0--------0-----------------------|


E|-------------------------------------------------------------|
B|-------------------------------------------------------------|
G|--7-7-7-7-7---7-7-7-7-7---7-7--------------------------------|
D|--7-7-7-7-7---5-5-5-5-5---4-4----7/9-------4^5^4-------------|
A|--5-5-5-5-5---5-5-5-5-5---5-5--------------------------------|
D|--0-0-0-0-0---0-0-0-0-0---0-0----------0---------------------|


E|---------------------------------------------------|
B|---------------------------------------------------|
G|--7-7-7-7-7---7-7-7-7-7---10--10--10-----7---------|
D|--7-7-7-7-7---5-5-5-5-5---10--10--10-----7---------|
A|--5-5-5-5-5---5-5-5-5-5---8---8----8-----5---------|
D|--0-0-0-0-0---0-0-0-0-0---------------------0------|



E|--------------------------------------------------|
B|--------------------------------------------------|
G|--7-7-7-7-7---7-7-7-7-7---7-7---------------------|
D|--7-7-7-7-7---5-5-5-5-5---4-4----7/9------4^5^4---|
A|--5-5-5-5-5---5-5-5-5-5---5-5---------------------|
D|--0-0-0-0-0---0-0-0-0-0---0-0----------0----------|

                                         2x
E|-----------------------------------------|
B|-----------------------------------------|
G|-----------------------------------------|
D|--------------4--------------------------|
A|--------5------------------5-------------|
D|-----0----0-------------0----0--0--------|
Suggest correction
Give kudos to tab author, rate the tab!
1 2 3 4 5
comments
print report bad tab
3 comments total.
0 reply
oISHUTupNrocKIo 10 Jul 08, 2009 11:31 AM

To be honest, this sounds nothing like the intro...

0 reply
Whoabot 7,069 Feb 20, 2010 07:47 PM

This isn't even close.

0 reply
colbycheese527 10 Mar 19, 2011 12:41 AM

I agree with thing 1 and 2.

D-10---10---10-10
A-8--8----8----8 X4
d-8------------8

D-10---10---10-7-10---10---10-7-7-8
A-7--7----7----7-7--7----7----7---- All of this twice.
d-7------------7-7------------7----

guest
You may want to rate the tab now too:
select rating
Wanna post a correction for this tab? Suggest correction