Oops, an error
Loading. Please wait.

All The Go Inbetweens Tab

version 2
version 2

Whole song

Interactive

2,862 views 9 this week
no commentswrite comment
1 2 3 4 5
please rate
add to favorites
launch autoscroll
font size
0
reset
how to read this tab
guitar tuner
Autoscroll
slow
fast
+/-
esc
set tempo
stop
Help us to improve Ultimate-Guitar.com Take our survey!
×
Author
Difficulty
Tuning
novice
D A D G B E
-------------------------------------------------------------------------------
                             Silversun Pickups - All the Go inbetweens...
-------------------------------------------------------------------------------
Tabbed by: Permaphrost
Email: Permaphrost@aol.com

Tuning: Drop D (DADGBe)

There's no good tabs up for this song, so I'm going to attempt tabbing it by ear. 
This is the first time I've tried doing it by ear, 
and I've been playing for a year and a half, so cut me a break. 
Also, I know this isn't perfect but I'm open to corrections if 
you guys think something doesn't sound right. I'll be updating this 
as I get more parts done.

e|---------------------------------------------------------------------------|
B|---------------------------------------------------------------------------|
G|---------------------------------------------------------------------------|
D|--10--10---10-10--10---10-10--10---10-10-10-1010---------------------------|
A|--8------8----8------8----8------8----8--8--8-8----------------------------| 
D|--8-----------8-----------8-----------8--8--8-8----------------------------|

e|---------------------------------------------------------------------------|
B|---------------------------------------------------------------------------|
G|---------------5-----------------------------------------------------------|
D|--7-7---7b-------7---7b-5--7/10--------------------------------------------|
A|--5---5-----5------5-------------------------------------------------------|
D|--5------------------------------------------------------------------------|

e|---------------------------------------------------------------------------|
B|---------------------------------------------------------------------------|
G|---------------------------------------------------------------------------|
D|--10--10---10-10--10---10-10--10---10-10-10-1010---------------------------|
A|--8------8----8------8----8------8----8--8--8-8----------------------------| 
D|--8-----------8-----------8-----------8--8--8-8----------------------------|

e|---------------------------------------------------------------------------|
B|---------------------------------------------------------------------------|
G|---------------------------------------------------------------------------|
D|--7-7-7/9--9-9/12--14/15--15-15/17-17-17/19-19-19--------------------------|
A|---------------------------------------------------------------------------|
D|---------------------------------------------------------------------------|




************************************

| /   slide up
| \   slide down
| h   hammer-on
| p   pull-off
| ~   vibrato
| +   harmonic
| x   Mute note
| b   Bend
| pb  Pre-bend
| br  Bend release
| pbr Pre-bend release
| brb Bend release bend

************************************
Suggest correction
Give kudos to tab author, rate the tab!
1 2 3 4 5
comments
print report bad tab
guest
You may want to rate the tab now too:
select rating
Wanna post a correction for this tab? Suggest correction