Oops, an error
Loading. Please wait.

Bloody Mary Nerve Endings Tab

version 1
version 1

Whole song

Interactive

3,594 views 6 this week
no commentswrite comment
1 2 3 4 5
please rate
add to favorites
launch autoscroll
font size
0
reset
how to read this tab
guitar tuner
Tab Pro tools
  • play this tab
  • loop segment
  • change instrument
  • show fretboard
  • metronome
Autoscroll
slow
fast
+/-
esc
set tempo
stop
Contributor
#----------------------------------PLEASE NOTE--------------------------------#
#This file is the author's own work and represents their interpretation of the#
#song. You may only use this file for private study, scholarship, or research.#
#-----------------------------------------------------------------------------#
#-- File created with Instab - http://www.pconline.com/~smcarey/instab.html --#
#-----------------------------------------------------------------------------#

Author/Artist: Silversun Pickups
Title: Bloody Mary (Nerve Endings)

P Pluck


Tuning (eb A D G B E), Down ~ 10%, (eb, D) Down ~ 20%
Live Standard Tuning, Down ~ 10%
Key: (D + C#)



----|-----------|--|
----|-11---9----|--|
----|-x----x----|--|
----|-13---9----|--|
----|-14---11---|--|
----|-----------|--|


  Intro



----|------------|--|
----|-16----12---|--|
----|-16----13---|--|
----|-16----14---|--|
----|-14----14---|--|
----|------------|--|
  

  Verse




----|-------------|--|
----|-11--9---9---|--|
----|-x---x---x---|--|
----|-13--11--9---|--|
----|-------------|--|
----|-------------|--|
  

  Verse Pt.2 




----|---------|--|------------------------|-------------------|
----|---------|--|------------------------|-------------------|
----|-9---8---|--|------------------------|-------------------|
----|-9---6---|--|------------------------|-------------------|
----|-7---6---|--|------------------------|-------------------|
----|---------|--|------------------------|-------------------|
  

  Chorus           Interlude Intro Chords   Outro Intro Chords
comments
We did not receive enough feedback on this tab! Please rate:
print report bad tab
1 2 3 4 5
I want to post or [tab]
guest
You may want to rate the tab now too:
select rating
Please do not post tabs as comments. Select "correction" instead!