Oops, an error
Loading. Please wait.

Bloody Mary Nerve Endings Chords

version 2
version 2

Whole song

Interactive

5,762 views 24 this week
no commentswrite comment
1 2 3 4 5
excellent!
x 6
add to favorites
launch autoscroll
font size
0
reset
transpose
0
reset
simplify chords
display chords
guitar tuner
Autoscroll
slow
fast
+/-
esc
set tempo
stop
Help us to improve Ultimate-Guitar.com Take our survey!
×
Contributor
Dijorno 566
-------------------------------------------------------------------
Bloody Mary (Nerve Endings) - Silversun Pickups (Neck of the Woods)
-------------------------------------------------------------------

E-mail: jordansummers226@gmail.com
Tuning: Eb Standard (Eb Ab Db Gb Bb Eb)

The other tabs/chords for this song had the wrong shapes.. 
These chords are pretty spot on to what Brian plays, after watching some live videos. 
Everyone has their own interpretation, but I think this one is pretty close to the original.
For transcription purposes, the chord names are just the chord shapes.
Please rate and enjoy!

Verse
    Cmaj7   Fmaj7
eb|---3------8----|
Bb|---5------10---|
Gb|---4------9----|
Db|---5------10---|
Ab|---3------8----|
Eb|---------------| 


Pre-Chorus
     Gmaj     Am     Fmaj7
eb|---10------12------8----|
Bb|---12------13------10---|
Gb|---12------14------9----|
Db|---12------14------10---|
Ab|---10------12------8----|
Eb|------------------------| 

Chorus 
       Fmaj7    Am                   Fmaj7    Am
1) eb|---0------0---|        2) eb|---8-------12---|
   Bb|---1------1---|           Bb|---10------13---|
   Gb|---2------2---|           Gb|---9-------14---|
   Db|---3------2---|           Db|---10------14---|
   Ab|---3------0---|           Ab|---8-------12---|
   Eb|--------------|     or    Eb|----------------|

* saw the first in an acoustic performance and the second in a regular performance
comments
print report bad tab
I want to post or [tab]
guest
You may want to rate the tab now too:
select rating
Please do not post tabs as comments. Select "correction" instead!