Oops, an error
Loading. Please wait.

Booksmart Devil Bass Tab

version 2
version 2

Whole song

459 views 1 this week
no commentswrite comment
1 2 3 4 5
please rate
add to favorites
launch autoscroll
font size
0
reset
guitar tuner
Tab Pro tools
  • play this tab
  • loop segment
  • change instrument
  • show fretboard
  • metronome
×
Best way to learn
"Booksmart Devil"
Autoscroll
slow
fast
+/-
esc
set tempo
stop
Contributor
Difficulty
novice
|----------------|----------------|
|----------------|----------------|
|----------------|----------------| ... times
|99-7---0~-------|55-4---0~-------|


|----------------|----------------|
|----------------|----------------|
|----------------|----------------|
|9-9-9-9-9-9-9-9-|9-9-9-9-9-9-9-9-|

|----------------|----------------|
|----------------|----------------|
|----------------|----------------|
|7-7-7-7-7-7-7-7-|7-7-7-7-7-7-7-7-|

|----------------|
|----------------|
|----------------|
|0-0-0-0-0-0-0-0-|


|----------------|----------------|
|----------------|----------------|
|----------------|----------------|
|99-7---0~-------|55-4---0~-------| ...times


|----------------|----------------|
|----------------|----------------|
|----------------|----------------|
|9-9-9-9-9-9-9-9-|9-9-9-9-9-9-9-9-|

|----------------|----------------|
|----------------|----------------|
|----------------|----------------|
|7-7-7-7-7-7-7-7-|7-7-7-7-7-7-7-7-|

|----------------|----------------|
|----------------|----------------|
|----------------|----------------|
|9-9-9-9-9-9-9-9-|9-9-9-9-9-9-9-9-|

|----------------|----------------|
|----------------|----------------|
|----------------|----------------|
|7-7-7-7-7-7-7-7-|7-7-7-7-7-7-7-7-|


|----------------|----------------|
|----------------|----------------|
|----------------|----------------| 
|99-7---0~-------|55-4---0~-------|
comments
We did not receive enough feedback on this tab! Please rate:
print report bad tab
1 2 3 4 5
I want to post or [tab]
guest
You may want to rate the tab now too:
select rating
Please do not post tabs as comments. Select "correction" instead!