Oops, an error
Loading. Please wait.

Booksmart Devil Tab

version 2
version 2

Whole song

4,448 views 3 this week
2 commentsread comments
1 2 3 4 5
x 3
add to favorites
launch autoscroll
font size
0
reset
how to read this tab
guitar tuner
Autoscroll
slow
fast
+/-
esc
set tempo
stop
Help us to improve Ultimate-Guitar.com Take our survey!
×
Author
Difficulty
novice
THIS is how you do the main riff of the song

e|--------------------------------------------------------------------|
B|--------------------------------------------------------------------|
G|--------------------------------------------------------------------|
D|----6-6--9b10r9---------9b10r9--------------------------------------|
A|----4-4--7b8r7-----7-7--7b8r7---------------------------------------|
E|-------------------5-5----------------------------------------------|

e|--------------------------------------------------------------------|
B|--------------------------------------------------------------------|
G|--------------------------------------------------------------------|
D|----6-6--9b10r9----9s14--14-14s9--6-6-------------------------------|
A|----4-4--7b8r7-----7s12--12-12s7--7-7-------------------------------|
E|--------------------------------------------------------------------|

Clean part

e|------4-----4-----4-----4---5------0-----0-----0-----0--------------|
B|--------5-----5-----5---------5------0-----0-----0-----0------------|
G|----6-----6-----6-----6---6-----6------1-----1-----1-----1----------|
D|--------------------------------------------------------------------|
A|--------------------------------------------------------------------|
E|--------------------------------------------------------------------|

Solo

e|--------------------------------------------------------------------|
B|--------------------------------------------------------------------|
G|--------------------------------------------------------------------|
D|--------------------------------------------------------------------|
A|----4-4--7~----7s9h11b12r11----4-4—7b8r7--------7b8r7---------------|
E|--------------------------------------------5-5---------------------|


Suggest correction
Give kudos to tab author, rate the tab!
1 2 3 4 5
comments
print report bad tab
2 comments total.
0 reply
Dufil 84 Oct 08, 2010 09:38 AM

I love Silversun pickups. I bet I'll love this song. My theory is, you have business loving a song if you don't even know how to play it, sing it, or even remember how the chorus goes, but hey thats just me.

0 reply
changobilly22 52 Jan 01, 2011 05:29 PM

why not for the main riff

E|--------------------------------------------
B|--------------------------------------------
G|--------9b-------9b---------9b-------9------
D|-11-11------7-7------11-11------7-7-----9-9-
A|-11-11--7b--7-7--7b--11-11--7b--7-7--7--9-9-
E|--9--9------5-5-------9--9------5-5-----7-7-

guest
You may want to rate the tab now too:
select rating
Wanna post a correction for this tab? Suggest correction