Oops, an error
Loading. Please wait.

Catch And Release Tab

version 2
version 2

Whole song

Interactive

3,593 views 1 this week
no commentswrite comment
1 2 3 4 5
2 more votes to show rating
add to favorites
launch autoscroll
font size
0
reset
how to read this tab
guitar tuner
Autoscroll
slow
fast
+/-
esc
set tempo
stop
Help us to improve Ultimate-Guitar.com Take our survey!
×
Author
-------------------------------------------------------------------------------
                        Catch and Release - Silversun Pickups
-------------------------------------------------------------------------------
Tabbed by: Ahrum
Email: Themoogledance@hotmail.com

Tuning: Standard

I think this song is a lot easier to play than people think it is.

This sounds like it should be in standard tuning, but if you listen really
closely to the last note in the bridge (3:34), it sounds lower than E, but
that may be the heavy bass overriding my ability to hear the guitar.


Main Riff
e|---------------------|
B|---------------------|
G|---------------------|
D|---------------------|
A|-2--4/5/7/9--9\2-----|
D|-2--4/5/7/9--9\2-----| x12

Chorus
e|--------------------------------|
B|--------------------------------|
G|--------------------------------|
D|--------------------------------|
A|-10-10--10\5-5/12-12\10---------|
D|-10-10--10\5-5/12-12\10---------| x3

Main Riff (Again)           1:08 Trans.  2:36 trans.
e|-------------------------|-----------|-----------|
B|-------------------------|--------8--|-----------|
G|-------------------------|------9----|------7-0--|
D|-------------------------|----9------|----9------|
A|-2--4/5/7/9-9\2----------|--7--------|--7--------|
D|-2--4/5/7/9-9\2----------|-----------|-----------|

Bridge
e|--------------------------------------------------------------------------|
B|--------------------------------------------------------------------------|
G|--------------------------------------------------------------------------|
D|--------------------------------------------------------------------------|
A|-9-9x9-9x9-9x9-9x10-10x10-10x10-10x10-10x5-5x5-5x5-5x5-5x9-9x9-9x12-12x12-|
D|-9-9x9-9x9-9x9-9x10-10x10-10x10-10x10-10x5-5x5-5x5-5x5-5x9-9x9-9x12-12x12-|

e|---------------------------------------------------|\
B|---------------------------------------------------| \
G|---------------------------------------------------|  \
D|---------------------------------------------------|   \
A|-10-10x10-10x10-10x10-10x14-14x14-14x14-14x14-14x7-|    \ 
E|-10-10x10-10x10-10x10-10x14-14x14-14x14-14x14-14x7-|     \
                                                            - x2
e|----------------------------------------|                /
B|----------------------------------------|               /
G|----------------------------------------|              /
D|----------------------------------------|             /
A|-7x7-7x7-7x7-7x9-9x9-9x12-12x12-12x10---|            /
E|-7x7-7x7-7x7-7x9-9x9-9x12-12x12-12x10---|           /


e|-------------------------------------------------------------------------------|
B|-------------------------------------------------------------------------------|
G|-------------------------------------------------------------------------------|
D|-------------------------------------------------------------------------------|
A|-10-10x10-10x10-10x10-10x14-14x14-14x14-14x14-14x7-7x7-7x7-7x7-7x4-4x4-4x0-0x0-|
E|-10-10x10-10x10-10x10-10x14-14x14-14x14-14x14-14x7-7x7-7x7-7x7-7x4-4x4-4x0-0x0-|

Ending
e|-------------|
B|----------8--|
G|-------------|
D|-----9-------|
A|---7---10----|
E|-------------|


[Main Riff]
[Chorus]
[Main Riff]
[Chorus]
[Main Riff]
[Chorus]
[Main Riff]
[Bridge]
[Chorus]
[Main Riff]
[Chorus]
[Main Riff]
[Ending]



| /  slide up
| \  slide down
| h  hammer-on
| p  pull-off
| ~  vibrato
| +  harmonic
| x  Mute note
===============================================================================
Suggest correction
Give kudos to tab author, rate the tab!
1 2 3 4 5
comments
print report bad tab
guest
You may want to rate the tab now too:
select rating
Wanna post a correction for this tab? Suggest correction