Oops, an error
Loading. Please wait.

Catch And Release Tab

version 3
version 3

Whole song

Interactive

18,932 views 27 this week
4 commentsread comments
1 2 3 4 5
accurate
x 8
add to favorites
launch autoscroll
font size
0
reset
how to read this tab
guitar tuner
Tab Pro tools
  • play this tab
  • loop segment
  • change instrument
  • show fretboard
  • metronome
×
Best way to learn
"Catch And Release"
Autoscroll
slow
fast
+/-
esc
set tempo
stop
Catch & Release
by Silversun Pickups

I figured this out by watching some live SSPU acoustic videos on youtube.
This probably isn't 100% accurate but it's better than anything else I've found.

If you don't like it don't complain, just fix it and repost it.


Standard Tuning


  (0:00)        12X			                         Easier (wrong) way to play it
e|-----------------------------------|  ~  |-----------------------------------|
B|-----------------------------------|  ~  |-----------------------------------|
G|-----------------------------------|  ~  |-----------------------------------|
D|--2--x-2-h-4---5-h-7---7-h-9-x-9---|  ~  |--2--x-4-/-5--5-/-7--7-/-9-x-9-----|
A|--2--x-2---2-/-5---5-/-7---7-x-7---|  ~  |--2--x-4-/-5--5-/-7--7-/-9-x-9-----|
E|--0--x-2---2-/-5---5-/-7---7-x-7---|  ~  |--0--x-2-/-3--3-/-5--5-/-7-x-7-----|

  (0:50)        2X		                     (0:58)	       1x
e|------------------------------------|-----------------------------------|
B|------------------------------------|-----------------------------------| Immediately slide down
G|------------------------------------|-----------------------------------| to the
D|------------------------------------|-----------------------------------|  (2)
A|--7--x-7--x-7-\-2--x-2-/-9---x-9--\-|--7--x-7--x-7-\-2--x-2-/-6--x-6-\--|  (2)
E|--8--x-8--x-8-\-3--x-3-/-10--x-10-\-|--8--x-8--x-8-\-3--x-3-/-7--x-7-\--|  (0) on the next line

  (1:03)                       1x                                  (1:09)
e|----------------------------------------------------------------------------|
B|------------------------------------------------------------------------8---|
G|----------------------------------------------------------------------------|
D|--2--x-2-h-4---5-h-7---7-h-9-x-9-----2--x-2-h-4---5-h-7---7-h-9-------------|
A|--2--x-2---2-/-5---5-/-7---7-x-7-----2--x-2---2-/-5---5-/-7---7-----7-------|
E|--0--x-2---2-/-5---5-/-7---7-x-7-----0--x-2---2-/-5---5-/-7---7---7---7-----|

  (1:11)         12x
e|-----------------------------------|
B|-----------------------------------|
G|-----------------------------------|
D|--2--x-2-h-4---5-h-7---7-h-9-x-9---|
A|--2--x-2---2-/-5---5-/-7---7-x-7---|
E|--0--x-2---2-/-5---5-/-7---7-x-7---|

  (2:01)         2x		                    (2:09)            1x
e|-------------------------------------|-----------------------------------|
B|--8--x-8--x-8-\-3--x-3-/-10--x-10-\--|--8--x-8--x-8-\-3--x-3-/-7--x-7----|
G|--0--x-0--x-0---0--x-0---0---x-0-----|--0--x-0--x-0---0--x-0---0--x-0----|
D|-------------------------------------|-----------------------------------|
A|--7--x-7--x-7-\-2--x-2-/-9---x-9--\--|--7--x-7--x-7-\-2--x-2-/-6--x-6-\--|
E|--8--x-8--x-8-\-3--x-3-/-10--x-10-\--|--8--x-8--x-8-\-3--x-3-/-7--x-7-\--|

  (2:14)         1x
e|-----------------------------------|
B|-----------------------------------|
G|-----------------------------------|
D|--2--x-2-h-4---5-h-7---7-h-9-x-9---|
A|--2--x-2---2-/-5---5-/-7---7-x-7---|
E|--0--x-2---2-/-5---5-/-7---7-x-7---|

  (2:18)         2x		                     (2:26)            1x
e|-------------------------------------|-----------------------------------|
B|--8--x-8--x-8-\-3--x-3-/-10--x-10-\--|--8--x-8--x-8-\-3--x-3-/-7--x-7----|
G|--0--x-0--x-0---0--x-0---0---x-0-----|--0--x-0--x-0---0--x-0---0--x-0----|
D|-------------------------------------|-----------------------------------|
A|--7--x-7--x-7-\-2--x-2-/-9---x-9--\--|--7--x-7--x-7-\-2--x-2-/-6--x-6-\--|
E|--8--x-8--x-8-\-3--x-3-/-10--x-10-\--|--8--x-8--x-8-\-3--x-3-/-7--x-7-\--|


  (2:30)                       1x                                  (2:37)
e|----------------------------------------------------------------------------|
B|------------------------------------------------------------------------8---|
G|----------------------------------------------------------------------------|
D|--2--x-2-h-4---5-h-7---7-h-9-x-9-----2--x-2-h-4---5-h-7---7-h-9-----9-------|
A|--2--x-2---2-/-5---5-/-7---7-x-7-----2--x-2---2-/-5---5-/-7---7---7---7-----|
E|--0--x-2---2-/-5---5-/-7---7-x-7-----0--x-2---2-/-5---5-/-7---7-------------|


  (2:38)                    (2:43)                  (2:47)
e|-------------------------------------------------------------------------|
B|--------------------------5--x-5--x-5----x-5--x--------------------------|
G|-------------------------------------------------------------------------|
D|--2--x-2--x-2----x-2--x---5--x-5--x-5----x-5--x---5--x-5--x-5----x-5--x--|
A|--2--x-2--x-2----x-2--x---3--x-3--x-3----x-3--x---5--x-5--x-5----x-5--x--|
E|--0--x-0--x-0----x-0--x---------------------------3--x-3--x-3----x-3--x--|


  (2:51)           (2:54)
e|-------------------------------|
B|--3--x-3--x--3-/-7--x-7--x-7---|
G|-------------------------------|
D|--4--x-4--x--4-/-7--x-7--x-7---|
A|--2--x-2--x--2-/-5--x-5--x-5---|
E|-------------------------------|

  (2:57)                     (3:00)                      (3:04)
e|----------------------------------------------------------------------------|
B|--5--x-5--x-5----x-5--x-5---8--x-8--x--8----x-8--x-8---1--x-1--x-1----x-1---|
G|----------------------------9--x-9--x--9----x-9--x-9---2--x-2--x-2----x-2---|
D|--5--x-5--x-5----x-5--x-5---9--x-9--x--9----x-9--x-9---2--x-2--x-2----x-2---|
A|--3--x-3--x-3----x-3--x-3---7--x-7--x--7----x-7--x-7---0--x-0--x-0----x-0---|
E|----------------------------------------------------------------------------|

  (3:07)          (3:10)        (3:12)                   (3:16)
e|----------------------------------------------------------------------------------|
B|--3--x-3--x-3-/-7--x-7--x-7-\-5--x-5--x-5----x-5--x-5-----------------------------|
G|----------------------------------------------------------------------------------|
D|--4--x-4--x-4-/-7--x-7--x-7-\-5--x-5--x-5----x-5--x-5---2--x-2--x-2----x-2--x-2---|
A|--2--x-2--x-2-/-5--x-5--x-5-\-3--x-3--x-3----x-3--x-3---2--x-2--x-2----x-2--x-2---|
E|--------------------------------------------------------0--x-0--x-2----x-0--x-0---|

  (3:21)                     (3:25)         (3:27)        (3:30)
e|--------------------------------------------------------------------------------|
B|--1--x-1--x-1----x-1--x-1---3--x-3--x-3-/-7--x-7--x-7-\-5--x-5--x-5--x-5--x-5---|
G|--2--x-2--x-2----x-2--x-2-------------------------------------------------------|
D|--2--x-2--x-2----x-2--x-2---4--x-4--x-4-/-7--x-7--x-7-\-5--x-5--x-5--x-5--x-5---|
A|--0--x-0--x-0----x-0--x-0---2--x-2--x-2-/-5--x-5--x-5-\-3--x-3--x-3--x-3--x-3---|
E|--------------------------------------------------------------------------------|

  (3:33)                      (3:37)                   (3:41)         (3:43)
e|----------------------------------------------------------------------------------|
B|--8--x-8--x-8----x-8--x-8---1--x-1--x-1----x-1--x-1---3--x-3--x-3-/-7--x-7--x-7---|
G|--9--x-9--x-9----x-9--x-9---2--x-2--x-2----x-2--x-2-------------------------------|
D|--9--x-9--x-9----x-9--x-9---2--x-2--x-2----x-2--x-2---4--x-4--x-4-/-7--x-7--x-7---|
A|--7--x-7--x-7----x-7--x-9---0--x-0--x-0----x-0--x-0---2--x-2--x-2-/-5--x-5--x-5---|
E|----------------------------------------------------------------------------------|


  (3:45)         2x		                      (3:54)            1x
e|-------------------------------------|-----------------------------------|
B|--8--x-8--x-8-\-3--x-3-/-10--x-10-\--|--8--x-8--x-8-\-3--x-3-/-7--x-7----|
G|--0--x-0--x-0---0--x-0---0---x-0-----|--0--x-0--x-0---0--x-0---0--x-0----|
D|-------------------------------------|-----------------------------------|
A|--7--x-7--x-7-\-2--x-2-/-9---x-9--\--|--7--x-7--x-7-\-2--x-2-/-6--x-6-\--|
E|--8--x-8--x-8-\-3--x-3-/-10--x-10-\--|--8--x-8--x-8-\-3--x-3-/-7--x-7-\--|


  (3:59)         1x
e|-----------------------------------|
B|-----------------------------------|
G|-----------------------------------|
D|--2--x-2-h-4---5-h-7---7-h-9-x-9---|
A|--2--x-2---2-/-5---5-/-7---7-x-7---|
E|--0--x-2---2-/-5---5-/-7---7-x-7---|

  (4:02)         2x		                     (4:11)            1x
e|-------------------------------------|-----------------------------------|
B|--8--x-8--x-8-\-3--x-3-/-10--x-10-\--|--8--x-8--x-8-\-3--x-3-/-7--x-7----|
G|--0--x-0--x-0---0--x-0---0---x-0-----|--0--x-0--x-0---0--x-0---0--x-0----|
D|-------------------------------------|-----------------------------------|
A|--7--x-7--x-7-\-2--x-2-/-9---x-9--\--|--7--x-7--x-7-\-2--x-2-/-6--x-6-\--|
E|--8--x-8--x-8-\-3--x-3-/-10--x-10-\--|--8--x-8--x-8-\-3--x-3-/-7--x-7-\--|

  (4:15)                3x                           1x              (4:30)
e|-----------------------------------|-----------------------------------------|
B|-----------------------------------|-------------------------------------8---|
G|-----------------------------------|-----------------------------------------|
D|--2--x-2-h-4---5-h-7---7-h-9-x-9---|--2--x-2-h-4---5-h-7---7-h-9-----9-------|
A|--2--x-2---2-/-5---5-/-7---7-x-7---|--2--x-2---2-/-5---5-/-7---7---7---7-----|
E|--0--x-2---2-/-5---5-/-7---7-x-7---|--0--x-2---2-/-5---5-/-7---7-------------|

 /  slide up
 \  slide down
 h  hammer on
 x  Mute note
comments
print report bad tab
4 comments total. Showing first comments. show 1 bad comment
-2 reply
CatNamedEaster wrote on October 21 2009, 07:03 pm

Perfect!

0 reply
rakuul88 wrote on October 23 2011, 07:21 pm

@CamelToeJoe actually, he's right and the version he says is wrong, is wrong. Good tab, man.

I want to post or [tab]
guest
You may want to rate the tab now too:
select rating
Please do not post tabs as comments. Select "correction" instead!