Oops, an error
Loading. Please wait.

Comeback Kid Tab

version 1
version 1

Whole song

Interactive

7,452 views 15 this week
3 commentsread comments
1 2 3 4 5
excellent!
x 7
add to favorites
launch autoscroll
font size
0
reset
how to read this tab
guitar tuner
Tab Pro tools
  • play this tab
  • loop segment
  • change instrument
  • show fretboard
  • metronome
Autoscroll
slow
fast
+/-
esc
set tempo
stop
Contributor
song      : comeback kid
artist    : silversun pickups
tabbed by : oneshotnothing


standard tuning


intro

e--|--------------------------------|----------------|
b--|--------------------------------|----------------|
g--|--------------------------------|----------------|
d--|--------9-----------9-----------|--------9-------|   x4
a--|----10----------10----------10--|----10------10--|
E--|--------------------------------|----------------|
    ^   ^   ^   ^   ^   ^   ^   ^   |^   ^   ^   ^   |
    1       2       3       4        1       2

e--|--------------------------------|----------------|
b--|------------10------------------|--------10------|
g--|----------------0---------------|------------0---|
d--|--------9---------------9-------|----9-----------|   x4
a--|----10----------------------10--|----------------|
E--|--------------------------------|----------------|   (this part isn't
    ^   ^   ^   ^   ^   ^   ^   ^   |^   ^   ^   ^   |    right, just bear
    1       2       3       4        1       2            with me )


verse (play twice)

e--|--------------------------------|--------------------------------|
b--|--------------------------------|--------------------------------|
g--|--------------------------------|--------------------------------|
d--|--------------------------------|--------------------------------|
a--|------------7---7-----------9---|9-----------10--9-----------5---|
E--|0---0---0---0---0---0---0---0---|0---0---0---0---0---0---0---0---|
    ^   ^   ^   ^   ^   ^   ^   ^   |^   ^   ^   ^   ^   ^   ^   ^   |
    1       2       3       4        1       2       3       4       
               with all         the  fire        set in          our

e--|--------------------------------|--------------------------------|
b--|--------------------------------|--------------------------------|
g--|--------------------------------|----11--------------------------|
d--|--------------------------------|----12------7-------9-------5---|
a--|10--10--10--10--10--10--10--10--|----12------7-------9-------5---|
E--|8---8---8---8---8---8---8---8---|----10------5-------7-------3---|
    ^   ^   ^   ^   ^   ^   ^   ^   |^   ^   ^   ^   ^   ^   ^   ^   |
    1       2       3       4        1       2       3       4     
    eyes

e--|--------------------------------|--------------------------------|
b--|--------------------------------|--------------------------------|
g--|--------------------------------|--------------------------------|
d--|5---2---------------------------|--------------------------------|
a--|5---2-------7---7-----------9---|9-----------10--9-----------10--|
E--|3---0---0---0---0---0---0---0---|0---0---0---0---0---0---0---0---|
    ^   ^   ^   ^   ^   ^   ^   ^   |^   ^   ^   ^   ^   ^   ^   ^   |
    1       2       3       4        1       2       3       4      
                without         a    cor    -    ner stone       to

e--|--------------------------------|--------------------------------|
b--|--------------------------------|--------------------------------|
g--|--------------------------------|----11--------------------------|
d--|--------------------------------|----12------7-------9-------5---|
a--|10--10--7---7---7---7---7---7---|----12------7-------9-------5---|
E--|8---8---8---8---8---8---8---8---|----10------5-------7-------3---|
    ^   ^   ^   ^   ^   ^   ^   ^   |^   ^   ^   ^   ^   ^   ^   ^   |
    1       2       3       4        1       2       3       4     
    real  - ize

e--|--------------------------------|--------------------------------|
b--|--------------------------------|--------------------------------|
g--|--------------------------------|--------------------------------|
d--|5---9---2-----------------------|--------------------------------|
a--|5---9---2---7---7-----------9---|9-----------10--9-----------10--|
E--|3---7---0---0---0---0---0---0---|0---0---0---0---0---0---0---0---|
    ^   ^   ^   ^   ^   ^   ^   ^   |^   ^   ^   ^   ^   ^   ^   ^   |
    1       2       3       4        1       2       3       4      
               that la    -     ter  on         we'll build      the

e--|--------------------------------|--------------------------------|
b--|--------------------------------|--------------------------------|
g--|--------------------------------|----11--------------------------|
d--|--------------------------------|----12------7-------9-------5---|
a--|10--10--10--10--10--10--10--10--|----12------7-------9-------5---|
E--|8---8---8---8---8---8---8---8---|----10------5-------7-------3---|
    ^   ^   ^   ^   ^   ^   ^   ^   |^   ^   ^   ^   ^   ^   ^   ^   |
    1       2       3       4        1       2       3       4     
    pyre

e--|--------------------------------|--------------------------------|
b--|--------------------------------|--------------------------------|
g--|--------------------------------|--------------------------------|
d--|5---2---------------------------|--------------------------------|
a--|5---2-------7---7-----------9---|9-----------10--9-----------7---|
E--|3---0---0---0---0---0---0---0---|0---0---0---0---0---0---0---0---|
    ^   ^   ^   ^   ^   ^   ^   ^   |^   ^   ^   ^   ^   ^   ^   ^   |
    1       2       3       4        1       2       3       4      
                and burn        so   eas     -   i - ly          well

e--|--------------------------------|--------------------------------|
b--|--------------------------------|--------------------------------|
g--|--------------------------------|----11--------------------------|
d--|--------------------------------|----12------7-------9-------5---|
a--|7---7---7---7---7---7---7---7---|----12------7-------9-------5---|
E--|8---8---8---8---8---8---8---8---|----10------5-------7-------3---|
    ^   ^   ^   ^   ^   ^   ^   ^   |^   ^   ^   ^   ^   ^   ^   ^   |
    1       2       3       4        1       2       3       4     
    every   one     but     me

e--|--------------------------------|--------------------------------|
b--|--------------------------------|--------------------------------|
g--|--------------------------------|----11--------------------------|
d--|5---2---------------------------|----12------7-------9-------5---|
a--|5---2---------------------------|----12------7-------9-------5---|
E--|3---0---------------------------|----10------5-------7-------3---|
    ^   ^   ^   ^   ^   ^   ^   ^   |^   ^   ^   ^   ^   ^   ^   ^   |
    1       2       3       4        1       2       3       4     

e--|--------------------------------|--------------------------------|
b--|--------------------------------|--------------------------------|
g--|--------------------------------|----11--------------------------|
d--|5---9---2-----------------------|----12------7-------9-------5---|
a--|5---9---2-----------------------|----12------7-------9-------5---|
E--|3---7---0-----------------------|----10------5-------7-------3---|
    ^   ^   ^   ^   ^   ^   ^   ^   |^   ^   ^   ^   ^   ^   ^   ^   |
    1       2       3       4        1       2       3       4  

e--|--------------------------------|--------------------------------|
b--|--------------------------------|--------------------------------|
g--|--------------------------------|----11--------------------------|
d--|5---2---------------------------|----12------7-------9-------5---|
a--|5---2---------------------------|----12------7-------9-------5---|
E--|3---0---------------------------|----10------5-------7-------3---|
    ^   ^   ^   ^   ^   ^   ^   ^   |^   ^   ^   ^   ^   ^   ^   ^   |
    1       2       3       4        1       2       3       4     

e--|--------------------------------|--------------------------------|
b--|--------------------------------|--------------------------------|
g--|--------------------------------|--------------------------------|
d--|5---9---2-----------------------|--------------------------------|
a--|5---9---2-----------------------|--------------------------------|
E--|3---7---0-----------------------|--------------------------------|
    ^   ^   ^   ^   ^   ^   ^   ^   |^   ^   ^   ^   ^   ^   ^   ^   |
    1       2       3       4        1       2       3       4  


chorus - use power chords


          G            A            B      C
     with words that defied all our social gestures

        G              E              B            C
     no one could have known what the comeback kid did

         G              A             B      C
     and words can't describe all the social pressures

          G            A              E            C
     that leads to the time where the comeback kid wins  
                                                    
                                                 
e--|--------------------------------|
b--|--------------------------------|
g--|----11--------------------------|
d--|----12------7-------9-------5---|
a--|----12------7-------9-------5---|
E--|----10------5-------7-------3---|
    ^   ^   ^   ^   ^   ^   ^   ^   |
    1       2       3       4     
        and     wins

e--|--------------------------------|--------------------------------|
b--|--------------------------------|--------------------------------|
g--|--------------------------------|--------------------------------|
d--|5---2--/7-------------7b8-------|--------------------9-------10--|
a--|5---2---------------------------|--------------------------------|
E--|3---0---------------------------|--------------------------------|
    ^   ^   ^   ^   ^   ^   ^   ^   |^   ^   ^   ^   ^   ^   ^   ^   |
    1       2       3       4        1       2       3       4  

e--|--------------------------------|--------------------------------|
b--|--------------------------------|--------------------------------|
g--|--------------------------------|----11--------------------------|
d--|--------------------------------|----12------7-------9-------5---|
a--|--------------------------------|----12------7-------9-------5---|
E--|--------------------------------|----10------5-------7-------3---|
    ^   ^   ^   ^   ^   ^   ^   ^   |^   ^   ^   ^   ^   ^   ^   ^   |
                                     1       2       3       4     

e--|--------------------------------|--------------------------------|
b--|--------------------------------|--------------------------------|
g--|--------------------------------|--------------------------------|
d--|5---9---2---4b5-----------------|--------------------------------|
a--|5---9---2-----------------------|--------------------------------|
E--|3---7---0-----------------------|--------------------------------|
    ^   ^   ^   ^   ^   ^   ^   ^   |^   ^   ^   ^   ^   ^   ^   ^   |
    1       2       3       4        1       2       3       4  


                                     bridge-ish thing (play twice)
e--|--------------------------------|--------------------------------|
b--|--------------------------------|--------------------------------|
g--|--------------------------------|--------------------------------|
d--|--------------------------------|--------7-------7---9---9---5---|
a--|--------------------------------|----5-------7---7---9---9---5---|
E--|--------------------------------|------------5---5---7---7---3---|
    ^   ^   ^   ^   ^   ^   ^   ^   |^   ^   ^   ^   ^   ^   ^   ^   |
                                     1       2       3       4     

e--|--------------------------------|--------------------------------|
b--|--------------------------------|--------------------------------|
g--|--------------------------------|--------------------------------|
d--|5---5---7---7---2---2---2---2---|2-------7-------7---9---9---5---|
a--|5---5---7---7---2---2---2---2---|2---5-------7---7---9---9---5---|
E--|3---3---5---5---0---0---0---0---|0-----------5---5---7---7---3---|
    ^   ^   ^   ^   ^   ^   ^   ^   |^   ^   ^   ^   ^   ^   ^   ^   |
    1       2       3       4        1       2       3       4  

e--|--------------------------------|--------------------------------|
b--|--------------------------------|--------------------------------|
g--|--------------------------------|--------------------------------|
d--|5---5---7---7---2---2---2---2---|2-------7-------7---9---9---5---|
a--|5---5---7---7---2---2---2---2---|2---5-------7---7---9---9---5---|
E--|3---3---5---5---0---0---0---0---|0-----------5---5---7---7---3---|
    ^   ^   ^   ^   ^   ^   ^   ^   |^   ^   ^   ^   ^   ^   ^   ^   |
    1       2       3       4        1       2       3       4  

e--|--------------------------------|--------------------------------|
b--|--------------------------------|--------------------------------|
g--|--------------------------------|--------------------------------|
d--|5---5---7---7---10--10--10------|--------7-------7---9---9---5---|
a--|5---5---7---7---10--10--10--10\-|----5-------7---7---9---9---5---|
E--|3---3---5---5---8---8---8-------|------------5---5---7---7---3---|
    ^   ^   ^   ^   ^   ^   ^   ^   |^   ^   ^   ^   ^   ^   ^   ^   |
    1       2       3       4        1       2       3       4  

e--|--------------------------------|
b--|--------------------------------|
g--|--------------------------------|
d--|5---5---7---7---2---2---2---2---|
a--|5---5---7---7---2---2---2---2---|
E--|3---3---5---5---0---0---0---0---|
    ^   ^   ^   ^   ^   ^   ^   ^   |
    1       2       3       4                  


after second time, continue here

e--|--------------------------------|
b--|--------------------------------|
g--|----11--------------------------|
d--|----12------7-------9-------5---|
a--|----12------7-------9-------5---|
E--|----10------5-------7-------3---|
    ^   ^   ^   ^   ^   ^   ^   ^   |
    1       2       3       4    


last verse

e--|--------------------------------|--------------------------------|
b--|--------------------------------|--------------------------------|
g--|--------------------------------|--------------------------------|
d--|--------------------------------|--------------------------------|
a--|7---7---7---7---7---7---7---7---|7---7---7---7---7---7---7---7---|
E--|0---0---0---0---0---0---0---0---|0---0---0---0---0---0---0---0---|
    ^   ^   ^   ^   ^   ^   ^   ^   |^   ^   ^   ^   ^   ^   ^   ^   |
    1       2       3       4        1       2       3       4  
                and now         we   sing        in bet     -    ter

e--|--------------------------------|--------------------------------|
b--|--------------------------------|--------------------------------|
g--|--------------------------------|----11--------------------------|
d--|--------------------------------|----12------7-------9-------5---|
a--|7---7---7---7---7---7---7---7---|7---12------7-------9-------5---|
E--|8---8---8---8---8---8---8---8---|8---10------5-------7-------3---|
    ^   ^   ^   ^   ^   ^   ^   ^   |^   ^   ^   ^   ^   ^   ^   ^   |
    1       2       3       4        1       2       3       4  
    moods

e--|--------------------------------|--------------------------------|
b--|--------------------------------|--------------------------------|
g--|--------------------------------|--------------------------------|
d--|5---2---------------------------|--------------------------------|
a--|5---2---7---7---7---7---7---7---|7---7---7---7---7---7---7---7---|
E--|3---0---0---0---0---0---0---0---|0---0---0---0---0---0---0---0---|
    ^   ^   ^   ^   ^   ^   ^   ^   |^   ^   ^   ^   ^   ^   ^   ^   |
    1       2       3       4        1       2       3       4  
                to- ge     -    ther whis     -  per ing         well

e--|--------------------------------|--------------------------------|
b--|--------------------------------|--------------------------------|
g--|--------------------------------|----11--------------------------|
d--|--------------------------------|----12------7-------9-------5---|
a--|7---7---7---7---7---7---7---7---|7---12------7-------9-------5---|
E--|8---8---8---8---8---8---8---8---|8---10------5-------7-------3---|
    ^   ^   ^   ^   ^   ^   ^   ^   |^   ^   ^   ^   ^   ^   ^   ^   |
    1       2       3       4        1       2       3       4  
    every   one     but     you

e--|--------------------------------|--------------------------------|
b--|--------------------------------|--------------------------------|
g--|--------------------------------|--------------------------------|
d--|5---9---2-----------------------|--------------------------------|
a--|5---9---2---7---7---7---7---7---|7---7---7---7---7---7---7---7---|
E--|3---7---0---0---0---0---0---0---|0---0---0---0---0---0---0---0---|
    ^   ^   ^   ^   ^   ^   ^   ^   |^   ^   ^   ^   ^   ^   ^   ^   |
    1       2       3       4        1       2       3       4  
                and lat    -    er   on          we  build       that

e--|--------------------------------|--------------------------------|
b--|--------------------------------|--------------------------------|
g--|--------------------------------|----11--------------------------|
d--|--------------------------------|----12------7-------9-------5---|
a--|7---7---7---7---7---7---7---7---|7---12------7-------9-------5---|
E--|8---8---8---8---8---8---8---8---|8---10------5-------7-------3---|
    ^   ^   ^   ^   ^   ^   ^   ^   |^   ^   ^   ^   ^   ^   ^   ^   |
    1       2       3       4        1       2       3       4  
    pyre

e--|--------------------------------|--------------------------------|
b--|--------------------------------|--------------------------------|
g--|--------------------------------|--------------------------------|
d--|5---2---------------------------|--------------------------------|
a--|5---2---7---7---7---7---7---7---|7---7---7---7---7---7---7---7---|
E--|3---0---0---0---0---0---0---0---|0---0---0---0---0---0---0---0---|
    ^   ^   ^   ^   ^   ^   ^   ^   |^   ^   ^   ^   ^   ^   ^   ^   |
    1       2       3       4        1       2       3       4  
                and burn        so   eas    -    i - ly          well


last prechorus (play four times)

e--|--------------------------------|--------------------------------|
b--|--------------------------------|--------------------------------|
g--|--------------------------------|--------------------------------|
d--|--------------------------------|--------------------------------|
a--|7---7---7---7---7---7---7---7---|7---7---7---7---7---7---7---7---|
E--|8---8---8---0---0---0---8---8---|8---0---0---0---8---8---0---0---|
    ^   ^   ^   ^   ^   ^   ^   ^   |^   ^   ^   ^   ^   ^   ^   ^   |
    1       2       3       4        1       2       3       4  
    every   one     but     me


last chorus - the same as the first chorus except:
               * the first half is quiet, with some sort of effect going on
               * the second half is the same power chords as before
               * more "and wins" on the end


          G            A            B      C
     with words that defied all our social gestures

        G              E              B            C
     no one could have known what the comeback kid did

         G              A           B      C
     and words can't define all the social pressures

          G            A              E            C
     that leads to the time where the comeback kid wins  

         B        C        B        C        B
     and wins and wins and wins and wins and wins


ending

e--|--------------------------------|--------------------------------|
b--|--------------------------------|--------------------------------|
g--|----11--------------------------|--------------------------------|
d--|----12------7-------9-------5---|5---9---2-----------------------|
a--|----12------7-------9-------5---|5---9---2-----------------------|
E--|----10------5-------7-------3---|3---7---0-----------------------|
    ^   ^   ^   ^   ^   ^   ^   ^   |^   ^   ^   ^   ^   ^   ^   ^   |
    1       2       3       4        1       2       3       4     
                                                    
comments
print report bad tab
3 comments total.
+1 reply
Grimm665 wrote on July 9 2007, 10:45 am

amazing tab. why cant ther ebe more tabbers like u. u put the 1+2+3+4 stuff at the bottem, which is always important if ur someone who wants to match this up with the drum and bass parts. very nice job

0 reply
CatNamedEaster wrote on October 21 2009, 07:07 pm

Awesome job.

0 reply
nolanwalker93 wrote on July 26 2012, 04:38 pm

Excellent tab. It sounds pitch perfect, while not looking overwhelmingly complicated. Great job.

I want to post or [tab]
guest
You may want to rate the tab now too:
select rating
Please do not post tabs as comments. Select "correction" instead!