Oops, an error
Loading. Please wait.

Cradle Better Nature tab

583 views 3 this week
3 commentsread comments
1 2 3 4 5
2 more votes to show rating
add to favorites
×
Save as Personal and add changes to this tab that will be seen only by you. Learn more ›
×
You can save this tab as Personal to edit and correct it or add notes. All changes will be seen only by you. Learn more »
launch autoscroll
font size
0
reset
how to read this tab
guitar tuner
edit
Autoscroll
slow
fast
+/-
esc
set tempo
stop
About this tab version
Guitar tab for Better Nature by Silversun Pickups w/ proper syncopation and suggestions for synth mimicry. Was this info helpful? Yes No
-------------------------------------------------------------------------------
                 Cradle (Better Nature) - Silversun Pickups
-------------------------------------------------------------------------------
Tabbed by: Micah Hobson
E-mail: shadowbreakmusic@gmail.com

Tuning: Half-step Down

They have a synth (as most people know) that creates this sound but i have a trick. CRANK THE GAIN!

((Intro)) Can be played on lead during chorus
D#|-19----16----19----16------------------------------------------------------|
A#|----19----16----19----16---------------------------------------------------|
F#|-16-16-13-13-16-16-13-13---------------------------------------------------|
C#|---------------------------------------------------------------------------|
G#|---------------------------------------------------------------------------|
D#|---------------------------------------------------------------------------|


((Verse)) x2
D#|---------------------------------------------------------------------------|
A#|---------------------------------------------------------------------------|
F#|-4-4-4-44-4-4-44-4-4-44-4-4-44-3-3-3-33-3-3-34-4-4-44-4-3-3----------------|
C#|-6-6-6-66-6-6-66-6-6-66-6-6-66-4-4-4-44-4-4-46-6-6-66-6-4-4----------------|
G#|-6-6-6-66-6-6-66-6-6-66-6-6-66-4-4-4-44-4-4-46-6-6-66-6-4-4----------------|
D#|---------------------------------------------------------------------------|

D#|---------------------------------------------------------------------------|
A#|---------------------------------------------------------------------------|
F#|-4-4-4-44-4-4-44-4-4-44-4-4-44-3-3-3-33-3-3-31-1-1-11-1-1-1----------------|
C#|-6-6-6-66-6-6-66-6-6-66-6-6-66-4-4-4-44-4-4-42-2-2-22-2-2-2----------------|
G#|-6-6-6-66-6-6-66-6-6-66-6-6-66-4-4-4-44-4-4-42-2-2-22-2-2-2----------------|
D#|---------------------------------------------------------------------------|


((Chorus)) x2
D#|---------------------------------------------------------------------------|
A#|---------------------------------------------------------------------------|
F#|------------------------------------9-999999-9-999999-6-666666-6-666-4-----|
C#|------------------------------------9-999999-9-999999-6-666666-6-666-4-----|
G#|--------------2-4--------------2-4--7-777777-7-777777-4-444444-4-444-2-----|
D#|-4-2-44-4-2-4-----4-2-4--4-2-4---------------------------------------------|


((Verse)) x2
D#|---------------------------------------------------------------------------|
A#|---------------------------------------------------------------------------|
F#|-4-4-4-44-4-4-44-4-4-44-4-4-44-3-3-3-33-3-3-34-4-4-44-4-3-3----------------|
C#|-6-6-6-66-6-6-66-6-6-66-6-6-66-4-4-4-44-4-4-46-6-6-66-6-4-4----------------|
G#|-6-6-6-66-6-6-66-6-6-66-6-6-66-4-4-4-44-4-4-46-6-6-66-6-4-4----------------|
D#|---------------------------------------------------------------------------|

D#|---------------------------------------------------------------------------|
A#|---------------------------------------------------------------------------|
F#|-4-4-4-44-4-4-44-4-4-44-4-4-44-3-3-3-33-3-3-31-1-1-11-1-1-1----------------|
C#|-6-6-6-66-6-6-66-6-6-66-6-6-66-4-4-4-44-4-4-42-2-2-22-2-2-2----------------|
G#|-6-6-6-66-6-6-66-6-6-66-6-6-66-4-4-4-44-4-4-42-2-2-22-2-2-2----------------|
D#|---------------------------------------------------------------------------|


((Chorus)) x2
D#|---------------------------------------------------------------------------|
A#|---------------------------------------------------------------------------|
F#|------------------------------------9-999999-9-999999-6-666666-6-666-4-----|
C#|------------------------------------9-999999-9-999999-6-666666-6-666-4-----|
G#|--------------2-4--------------2-4--7-777777-7-777777-4-444444-4-444-2-----|
D#|-4-2-44-4-2-4-----4-2-4--4-2-4---------------------------------------------|


((Solo))
D#|---------------------------------------------------------------------------|
A#|---------------------------------------------------------------------------|
F#|---------------------------------------------------------------------------|
C#|---13-11-9-11-9-11h12h13----13-11-9-8pb-8pb-----13-11-9-11-9-11h12h13------|
G#|-11----------------------11------------9---9/11-----------------------11---|
D#|---------------------------------------------------------------------------|

D#|---------------------------------------------------------------------------|
A#|---------------------------------------------------------------------------|
F#|---------------------------------------------------------------------------|
C#|-13-11-9-8pb-8pb---13-11-9-11-9-11h12h13---13-11-9-8pb-8pb----13-11-9-11-9-|
G#|-----------9---9-7-----------------------9-----------9---9/11--------------|
D#|---------------------------------------------------------------------------|

D#|---------------------------------------------------------------------------|
A#|-------------------------------11-9-11-9-----------------------------------|
F#|-------------------------------11-9-11-9-----------------------------------|
C#|-9-11h12h13----13-11-9-8pb-8pb-11-9-11-9-----------------------------------|
G#|------------11-----------9---9---------------------------------------------|
D#|---------------------------------------------------------------------------|


((Chorus)) x2
D#|---------------------------------------------------------------------------|
A#|---------------------------------------------------------------------------|
F#|------------------------------------9-999999-9-999999-6-666666-6-666-4-----|
C#|------------------------------------9-999999-9-999999-6-666666-6-666-4-----|
G#|--------------2-4--------------2-4--7-777777-7-777777-4-444444-4-444-2-----|
D#|-4-2-44-4-2-4-----4-2-4--4-2-4---------------------------------------------|


((Outro))
D#|---------------------------------------------------------------------------|
A#|---------------------------------------------------------------------------|
F#|-4-4-4-44-4-4-44-4-4-44-4-4-44-4-4-44-4-4-44-4-----------------------------|
C#|-6-6-6-66-6-6-66-6-6-66-6-6-66-6-6-66-6-6-66-6-----------------------------|
G#|-6-6-6-66-6-6-66-6-6-66-6-6-66-6-6-66-6-6-66-6-----------------------------|
D#|---------------------------------------------------------------------------|

Thanks for reading this tab! Remember to rate and comment and if you have any 
suggestions feel free to add 'em. I'll make sure to discuss them and improve 
the tab whenever possible.
************************************

| /   slide up
| \   slide down
| h   hammer-on
| p   pull-off
| ~   vibrato
| +   harmonic
| x   Mute note
| b   Bend
| pb  Pre-bend
| br  Bend release
| pbr Pre-bend release
| brb Bend release bend

************************************

            
            
Suggest correction
Creating personal tab
Creating personal tab
You can edit any tab online and save it as your Personal.

You can edit, replace or remove any tab part or add personal notes – all changes will be seen only by you.

Personal tabs can be accessed anytime from any device, even offline.
Learn more »
Give kudos to tab author, rate the tab!
1 2 3 4 5
comments
print report bad tab
3 comments total.
+1 reply
egor-4561 10 Jun 23, 2016 07:32 AM

Awesome tab ! Intro sound amazing
Great work!!!!!

0 reply
MasterMicahWH 592 Oct 10, 2016 08:44 AM

Thanks! If you could check out my other tabs you'll find more good music and as a bonus you'll know exactly how to play it! Seriously though, i know so many bands that are undiscovered and I'm the only one tabbing for them so please show these guys some love!

0 reply
MasterMicahWH 592 Jun 26, 2017 07:11 PM

Thanks! I pride my self on being one of the few contributors with a fucking clue!

guest
You may want to rate the tab now too:
select rating
Wanna post a correction for this tab? Suggest correction