Oops, an error
Loading. Please wait.

Dots And Dashes Enough Already Bass Tab

version 2
version 2

Whole song

Interactive

2,609 views 3 this week
no commentswrite comment
1 2 3 4 5
excellent!
x 5
add to favorites
launch autoscroll
font size
0
reset
guitar tuner
Autoscroll
slow
fast
+/-
esc
set tempo
stop
Help us to improve Ultimate-Guitar.com Take our survey!
×
Contributor
Dijorno 566
----------------------------------------------------
Dots And Dashes (Enough Already) - Silversun Pickups
----------------------------------------------------

E-mail: jordansummers226@gmail.com
Tuning: Eb Standard (Eb Ab Db Gb)

Main Riff (0:00-0:29)
Gb|-----------------------------------------------------------------|
Db|-----------------------------------------------------------------|
Ab|---5-------5-------5-------5-------5-------5-------5-------5-----|
Eb|-0---0-3-0---0-3-0---0-3-0---0-3-0---0-3-0---0-3-0---0-3-0---0-3-|

Gb|-----------------------------------------------------------------|
Db|---------------------------------------2-------2-------2-------2-|
Ab|-------3-------3-------3---------3-2-3---3-2-3---3-2-3---3-2-3---|
Eb|-5-3-5---5-3-5---5-3-5---5-3-5-3---------------------------------|

Secondary Riff (0:29-0:43)
Gb|--------------------------------------------------------------|
Db|--------------------------------------------------------------|
Ab|---5---------------5---------------5---------------5----------|
Eb|-0------0-3-0----0------0-3-0----0------0-3-0----0------0-3-0-|

Main Riff (0:43-2:09)

Chorus (2:09-2:37)
Gb|-------------------------------------|
Db|-------------------------------------|
Ab|-3333333333333333\22222222/55555555\-|
Eb|-------------------------------------|

Main Riff (2:37-2:52)

Interlude (2:52-3:28)
Gb|---|
Db|---|
Ab|-7-|
Eb|---|

Main Riff (3:28-3:56)

Chorus (3:56-4:29)

Rest (4:29-5:08)
comments
print report bad tab
I want to post or [tab]
guest
You may want to rate the tab now too:
select rating
Please do not post tabs as comments. Select "correction" instead!