Oops, an error
Loading. Please wait.

Dream At Tempo 119 Tab

version 1
version 1

Whole song

Interactive

12,409 views 6 this week
3 commentsread comments
1 2 3 4 5
x 6
add to favorites
launch autoscroll
font size
0
reset
how to read this tab
guitar tuner
Autoscroll
slow
fast
+/-
esc
set tempo
stop
Help us to improve Ultimate-Guitar.com Take our survey!
×
Author
Difficulty
intermediate
Tabbed by: Ryan Atkinson
Email: rratky11@yahoo.ca

Tuning: Standard

e|--12-------12-------12--------12--------15-------15------------------------|
B|-----13-------13-------13--------13--------13------------------------------|
G|--------14-------14-------14--------14--------14---------------------------|
D|---------------------------------------------------------------------------|
A|---------------------------------------------------------------------------|
E|---------------------------------------------------------------------------|x2

e|--13-------13-------13-------13--------15-------15-------------------------|
B|-----13-------13-------13-------13--------13-------------------------------|
G|--------14-------14-------14-------14--------14----------------------------|
D|---------------------------------------------------------------------------|
A|---------------------------------------------------------------------------|
E|---------------------------------------------------------------------------|x2

^repeat both


e|---------------------------------------------------------------------------|
B|---------------------------------------------------------------------------|
G|---------------------------------------------------------------------------|
D|--3-3-3-3-3-3-3-3-3-3-3-3-3-3-3-3-3-3-3-3-3-3-3-3----5-5-5-/-7-------------|
A|--3-3-3-3-3-3-3-3-3-3-3-3-3-3-3-3-3-3-3-3-3-3-3-3----5-5-5-/-7-----7^------|
E|--1-1-1-1-1-1-1-1-1-1-1-1-1-1-1-0-1-1-1-1-1-1-1-1----3-0-3-/-5-------------|


e|---------------------------------------------------------------------------|
B|---------------------------------------------------------------------------|
G|----------------------9-9-9h10-9----------------------------------9-12-9---|
D|-10-10h12-10-10h12-10------------12-10-10-10-10h12-10-10h12-10/12--------12|
A|---------------------------------------------------------------------------|
E|---------------------------------------------------------------------------|


e|---------------------------------------------------------------------------|
B|---------------------------------------------------------------------------|
G|---------------------------------------------------------------------------|
D|-10-10h12-10-10h12-10-------10-10h12-10-10h12-10---------------------------|
A|----------------------12-8-----------------------12-8----------------------|
E|---------------------------------------------------------------------------|
  
   

e|---------------------------------------------------------------------------|
B|---------------------------------------------------------------------------|
G|---------------------------------------------------------------------------|
D|--7~------9~-------10~-----------------------------------------------------|
A|---------------------------------------------------------------------------|
E|---------------------------------------------------------------------------|



| /  slide up
| \  slide down
| h  hammer-on
| p  pull-off
| ~  vibrato
| +  harmonic
| x  Mute note
===============================================================================
Suggest correction
comments
print report bad tab
3 comments total.
0 reply
cardboard.scene 94 Jun 10, 2007 11:20 PM

this is a fantastic song. mildy tricky to get. this tab is a decent and simple look at the song. it will definitly put you on the right track. listening to the song and playing along with this should have even the mentally challenged rockin it on their strings. i give it 3 stars for being an easy guide to playing the song for fun by yourself, but no better based on the fact that its quite simplified, short-cutted, and the rhythm interpretation is a little dogdy. none the less good job to the tabber and cheers to tabbin such a great song out. keep it up.

0 reply
cardboard.scene 94 Jun 10, 2007 11:47 PM

p.s: this is a two guitar song with studio over-dubs .. not a 3 or 4 guitar track like the guitar pro tab says.

0 reply
cardboard.scene 94 Dec 29, 2007 03:59 AM

okay so, i have more feedback on this ..

during the verse the riding on the F5 chord and transition in the little G5
A5 thing with the releasing the low E string lead me to the chorus lead correction im going to post here .. since nobody
has come any closer to the proper way to do play it after quite a bit of time playing with the song .. it never quite
sounded complete. after i seen what ryan tabbed here for the chorus lead i managed to analyze the verse and incorporate
the Ride/Release of the E string .. into the slide from the b note to c note that im adding to ryans tab. it only makes
sense and it sounds alot fuller. unless someone has a better way to play it, im convinced this is the best and most
effective way to belt it out during the chorus. i may change/rearrange the notes on the tab to suit how i think it
should be played.


e|-----|
B|-----|
G|-----9-9-9-10-9-----9-9
-9-12-9----|
D|-9/10-10-12--10h12-10-12-10h
12-10-----12--10-10-12--1
0h12-10-12--10h12-10-----
12-|
A|-----|
E|-----|


e|-----|
B|-----|
G|-----|
D|-9/10-10-12--10h12-10-12-10h
12-10-----9/10-10-12--10h12-10-12-10h
12-10-----|
A|-----12-8-----12-8-----
|
E|-----|

guest
You may want to rate the tab now too:
select rating
Wanna post a correction for this tab? Suggest correction