Oops, an error
Loading. Please wait.

Future Foe Scenarios Bass Tab

version 1
version 1

Whole song

Interactive

3,148 views 3 this week
no commentswrite comment
1 2 3 4 5
1 last vote to show rating
add to favorites
launch autoscroll
font size
0
reset
guitar tuner
Autoscroll
slow
fast
+/-
esc
set tempo
stop
Help us to improve Ultimate-Guitar.com Take our survey!
×
Author
Band - Silversun Pickups
Song - Future Foe Scenarios
Album - Carnavas
Track - 5
Bassist - Nikki Monninger

Intro
G-----------------|
D-----------------|
A-7---7---7---7---| Repeat
E-----------------|

G-----------------|
D-----------------|
A-3---3---3---3---|
E-----------------|

Verse 1
G-----------------|
D-----------------|
A-7-7-7-7-7-7-7-7-|
E-----------------| x lots

Chorus
G---------------------------------|
D---------------------------------|
A-3-3-3-3-3-3-3-3-3-3-3-3-3/5-5-5-|
E---------------------------------| x2

Verse 2
G-----------------|
D-----------------|
A-----------------|
E-0-0-0-0-0-0-0-0-| x2

G-----------------|
D-----------------|
A-7-7-7-7-7-7-7-7-|
E-----------------| x2

G-----------------|
D-----------------|
A-----------------|
E-0-0-0-0-0-0-0-0-| x2

G-----------------|
D-----------------|
A-7-7-7-7-7-7-7-7-|
E-----------------| x2

G-----------------|
D-----------------|
A-----------------|
E-0-0-0-0-0-0-0-0-| x1

Chorus x1

End of Chorus
G-----------------|
D-----------------|
A-7-7-7-7-7-7-7-7-|
E-----------------| x3

G-----------------|
D-----------------|
A-5/7-7-7-7-7-----|
E-----------------| x1

Verse 3
G-----------------|
D-----------------|
A-----------------|
E-0-0-0-0-0-0-0-0-| x lots

Chorus x2

Verse 4 - Same as Verse 2

Chorus x1

Bridge
G-----------------|
D-----------------|
A-7-7-7-7-7-7-7-7-|
E-----------------| x4

G-----------------|
D-----------------|
A-----------------|
E-0-0-0-0-0-0-0-0-| x4

G-----------------|
D-----------------|
A-3-3-3-3-3-3-3-3-|
E-----------------| x3

G-----------------|
D-----------------|
A-3-3-3-3-3/5-5-5-|
E-----------------| x1

Verse 5
G-----------------|
D-----------------|
A-7-7-7-7-7-7-7-7-|
E-----------------| x4

G-----------------|
D-----------------|
A-3-3-3-3-3-3-3-3-|
E-----------------| x3

G-----------------|
D-----------------|
A-3-3-3-3-3/5-5-5-|
E-----------------| x1

G-----------------|
D-----------------|
A-7-7-7-7-7-7-7-7-|
E-----------------| x3

G-----------------|
D-----------------|
A-7-7-7-7-7-7-5-5-|
E-----------------| x1

G-----------------|
D-----------------|
A-3-3-3-3-3-3-3-3-|
E-----------------| x4

"And there's no way to know"
G-----------------|
D-----------------|
A-5-5-5-5-5-5-5-5-|
E-----------------| x4

G-----------------|
D-----------------|
A-3-3-3-3-3-3-3-3-|
E-----------------| x4

G-----------------|
D-----------------|
A-----------------|
E-0~~~~-----------|

Outro
G-----------------|
D-----------------|
A-7-7-7-7-7-7-7-7-|
E-----------------| x4

G-----------------|
D-----------------|
A-3-3-3-3-3-3-3-3-|
E-----------------| x1

G-----------------|
D-----------------|
A-3-3-3-3-3/5-5-5-|
E-----------------| x1

G-----------------|
D-----------------|
A-3-3-3-3-3-3-3-3-|
E-----------------| x1

G-----------------|
D-----------------|
A-3-3-3-3-3/5-5-5-|
E-----------------| x1

Repeat Outro

End on
G----------------|
D----------------|
A-7~~~~----------|
E----------------|
Suggest correction
Give kudos to tab author, rate the tab!
1 2 3 4 5
comments
print report bad tab
guest
You may want to rate the tab now too:
select rating
Wanna post a correction for this tab? Suggest correction