Oops, an error
Loading. Please wait.

Growing Old Is Getting Old Tab

version 1
version 1

Whole song

Interactive

7,056 views 9 this week
no commentswrite comment
1 2 3 4 5
please rate
add to favorites
launch autoscroll
font size
0
reset
how to read this tab
guitar tuner
Autoscroll
slow
fast
+/-
esc
set tempo
stop
Help us to improve Ultimate-Guitar.com Take our survey!
×
Difficulty
intermediate
I added in the bass line on normal guiter because i dont know the first bit, its 
still a fun riff to practice with.
    
 intro:

e-------------------------------------------------------]
b-------------------------------------------------------]
g-------------------------------------------------------] repeat 6 times.
d----6-----4-6---x2----4-----2-4---x2----2-----0-2---x4-]
a------4-7---------------2-6---------------0-4----------]
e-------------------------------------------------------]

bridge:
e---------------------------------------------------]
b---------------------------------------------------]
g---------------------------------------------------] repeat twice.
d----4-----2-4----x2----2-----0-2----x2-------------]
a------2-6----------------0-4-----------------------]
e---------------------------------------------------]

back to beggining.

 interlude:

e----7---------7---------5---------3----------]
b----8---------8---------7---------5----------]
g----9----x20--9---x4----7---x4----5----x10---]  repeat whole thing 6 times.
d----9---------9---------7---------5----------]
a----7---------7---------5---------3----------]
e----7---------7---------5---------3----------]

 chorus:

e----5-----------7-----------3-----------]
b----7-----------8-----------5-----------]
g----7----x20----9----x10----5----x10----]  until end.
d----7-----------9-----------5-----------]
a----5-----------7-----------3-----------]
e----5-----------7-----------3-----------]

 finishing notes:

e----3-----------7-----]
b----5-----------8-----]
g----5----x16----9-----]
d----5-----------9-----]
a----3-----------7-----]
e----3-----------------]

by the way i also got the lyrics:


So we all
Are growing old
And it's getting old

Pressure on
Our hollow bones
and the varicose

Suddenly
We decompose
But we're not alone

So we all
Are growing old

Maybe we're sealed in silence
And maybe we feel a guidance
Maybe your only vices
Will keep you afraid and cold
But i

Memorized
Your smile lines
From left to right

Came to life
And childlike
Reaction time

We're allowed
To expire
With ourselves in mind

So we all
Are growing old

Pull out the fear of silence
And put out the need for guidance
And put out your only vices
And don't be afraid of the cold

And we sing, sing, sing.
Fight, we fight, we fight.
We cry, cry, we cry.
We slide, slide, we slide into the light.

Do we sing, fight, we cry?
we slide, slide, we slide into the light.

Maybe we're sealed in silence
And maybe we feel a guidance
Maybe your only vices
Will keep you afraid and cold, well.

Pull out the fear of silence
Put out the need for guidance
Put out your only vices
And don't be afraid of the cold
Afraid of the cold
Afraid of the time
You've got no where to go but here.

 enjoy!
comments
We did not receive enough feedback on this tab! Please rate:
print report bad tab
1 2 3 4 5
I want to post or [tab]
guest
You may want to rate the tab now too:
select rating
Please do not post tabs as comments. Select "correction" instead!