Oops, an error
Loading. Please wait.

Growing Old Is Getting Old Bass Tab

version 2
version 2

Whole song

Interactive

5,864 views 6 this week
2 commentsread comments
1 2 3 4 5
x 5
add to favorites
launch autoscroll
font size
0
reset
guitar tuner
Autoscroll
slow
fast
+/-
esc
set tempo
stop
Help us to improve Ultimate-Guitar.com Take our survey!
×
Author
Difficulty
novice
-------------------------------------------------------------------------------
GROWING OLD IS GETTING OLD (Unplugged) – Silversun Pickups
-------------------------------------------------------------------------------

Tabbed By : Fielden McMillan
e-mail: fieldenmcmillan@yahoo.com

Tuning: Standard (E A D G)
Bassist: Nikki Monninger
Guitar: Epiphone ‘El Capitan’ single cutaway acoustic and a pick

Introduction – Main Riff
G|--------------------------------------------------------------------------------------------|x6 
D|--------------------------------------------------------------------------------------------| 
A|-11---7-9-11--11---7-9-11--9---6-7-9--9---6-7-9--7---4-5-7--7---4-5-7--7---4-5-7--7---4-5-7-|
E|----9------------9-----------7----------7----------5----------5----------5----------5-------|

Changeup
G|----------------------------------------------|x2
D|----------------------------------------------| 
A|-9---6-7-9--9---6-7-9--11---7-9-11--7---4-5-7-|
E|---7----------7-----------9-----------5-------|

Segue
G|-----------|x1
D|-----------| 
A|-7---4-5-7-|
E|---5-------|


Main Riff x4

Changeup x2

Segue

Leadout-A (may play more aggressively, with additional plucked notes if desired, for repeats 3-6)
G|-------------------------------|x6
D|-------------------------------|
A|-7-77-2\7-77-2\7-7-----3-33-2\-|
E|-------------------3-3---------|
X|-------------------------------|

Leadout-B (same as above, only Nikki plays E on the E string for different tone)
G|---------------------------------------|x2
D|---------------------------------------|
A|---------2\--------2\----------3-33-2\-|
E|-12-1212---12-1212---12-12-3-3---------|

Leadout-A x2

Leadout-B

Leadout-A

Leadout-B

Leadout-A

Finale-A
G|---------------------------------------|x3
D|---------------------------------------|
A|-555-5-555-5-777-7-333-3---------------|
E|---------------------------------------|

Finale-B
G|---------------------------------------|
D|---------------------------------------|
A|-555-5-555-5-777-7-3-------------------| (let ring out)
E|---------------------------------------|

| /  slide up
| \  slide down
| h  hammer-on
| p  pull-off
| ~  vibrato
| +  harmonic
| x  Mute note
===============================================================================
Suggest correction
comments
print report bad tab
2 comments total.
0 reply
Torsional 82 Oct 31, 2013 10:07 AM

Excellent tab! Thanks! I'd only add a 3/7 as the last note for the album version to finish off nicely. :')

0 reply
Mr.Bunnsy 10 Oct 27, 2014 03:51 AM

This tab rocks. It's more accurate than Version 1. I'd agree with Torsional that it should end with a 3/7
But then again, it can end however the musician playing it wants.

guest
You may want to rate the tab now too:
select rating
Wanna post a correction for this tab? Suggest correction