Oops, an error
Loading. Please wait.

Gun-Shy Sunshine Bass Tab

1,432 views 3 this week
no commentswrite comment
1 2 3 4 5
please rate
add to favorites
launch autoscroll
font size
0
reset
guitar tuner
Autoscroll
slow
fast
+/-
esc
set tempo
stop
Help us to improve Ultimate-Guitar.com Take our survey!
×
Author
Difficulty
Tuning
intermediate
C# G# C# F# A# D#
Song: Gun-Shy Sunshine
Artist: Silversun Pickups
Album: Neck Of The Woods
Tabbed By: Kyle MacDonald (kylehnat@hotmail.com)

Tuning: Db Ab Db Gb (Drop tuning, 1/2 step down)

/ = slide

INTRO/VERSE 1
Gb|--------------------------------|
Db|0---------------5-------3-------|  X 6
Ab|--------3-----------------------|
Db|--------------------------------|

CHORUS 1
Gb|--------------------------------|
Db|--------------------------------|
Ab|1-------3-----------------------|
Db|----3-------5-------------------|

Gb|--------------------------------|
Db|--------------------------------|
Ab|--------------3---5-3-0---------|
Db|0-3-0-5-0-7-0-------------------|

Gb|--------------------------------|
Db|--------------------------------|
Ab|--------------3---5-3-0---------|
Db|0-3-0-5-0-7-0-------------------|

Gb|--------------------------------|
Db|--------------------------------|
Ab|1-------3-----------------------|
Db|----3-------5-------------------|

Gb|--------------------------------|
Db|--------------------------------|
Ab|--------------3---5-3-0---------|
Db|0-3-0-5-0-7-0-------------------|

PRE-VERSE/VERSE 2
Gb|--------------------------------|
Db|--------------------------------|  X 24
Ab|--------------------------------|
Db|12--15--14--12-12--15--14-------|

CHORUS 2
Gb|--------------------------------||
Db|--------------------------------||
Ab|1-------3-----------------------||
Db|----3-------5-------------------||
                                    |
Gb|--------------------------------||
Db|--------------------------------|| X 2
Ab|--------------3---5-3-0---------||
Db|0-3-0-5-0-7-0-------------------||
                                    |
Gb|--------------------------------||
Db|--------------------------------||
Ab|--------------3---5-3-0---------||
Db|0-3-0-5-0-7-0-------------------||

Gb|--------------------------------|
Db|--------------------------------|  X 3
Ab|1-------3-----------------------|
Db|----3-------5-------------------|

Gb|--------------------------------|
Db|--------------------------------|
Ab|1-------------------------------|
Db|----3---3/5---------------------|

VERSE 3
Gb|--------------------------------|
Db|--------------------------------|  X 10
Ab|--------------------------------|
Db|12-12--15--14-12--12------------|

Gb|--------------------------------|
Db|--------------------------------|
Ab|1 (let ring)--------------------|
Db|--------------------------------|

INTERLUDE
Gb|--------------------------------|
Db|0-------0-------0-------0-------|
Ab|--------------------------------|
Db|--------------------------------|

(with distortion)
Gb|--------------------------------|
Db|--------------------------------|
Ab|1-------3-----------------------|
Db|----3-------5-----0-------------|

Gb|--------------------------------|
Db|--------------------------------|
Ab|1-------3-----------------------|
Db|----3-------5-------------------|
                                    
(clean)
Gb|--------------------------------|
Db|--------------------------------|  X 2
Ab|--------------3---5-3-0---------|
Db|0-3-0-5-0-7-0-------------------|

CHORUS 3
Gb|--------------------------------||
Db|--------------------------------||
Ab|1-------3-----------------------||
Db|----3-------5-------------------||
                                    |
Gb|--------------------------------||
Db|--------------------------------|| X 2
Ab|--------------3---5-3-0---------||
Db|0-3-0-5-0-7-0-------------------||
                                    |
Gb|--------------------------------||
Db|--------------------------------||
Ab|--------------3---5-3-0---------||
Db|0-3-0-5-0-7-0-------------------||

Gb|--------------------------------|
Db|--------------------------------|  X 3
Ab|1-------3-----------------------|
Db|----3-------5-------------------|

Gb|--------------------------------|
Db|--------------------------------|
Ab|1-------------------------------|
Db|----3---3/5 (let ring)----------|
Suggest correction
Give kudos to tab author, rate the tab!
1 2 3 4 5
comments
print report bad tab
guest
You may want to rate the tab now too:
select rating
Wanna post a correction for this tab? Suggest correction