Oops, an error
Loading. Please wait.

Its Nice To Know You Work Alone Bass Tab

version 1
version 1

Whole song

Interactive

1,731 views 3 this week
1 commentread comment
1 2 3 4 5
x 3
add to favorites
launch autoscroll
font size
0
reset
guitar tuner
Autoscroll
slow
fast
+/-
esc
set tempo
stop
Help us to improve Ultimate-Guitar.com Take our survey!
×
Author
Difficulty
Tuning
novice
D A D G B E
*************************************************************************************************
                                       Silversun Pickups
                                             Swoon
                                  It's Nice to Know You Work Alone
*************************************************************************************************


TUNING: Drop D (DADG)


INTRO (0:00 - 0:30)
G|-----------------------------------------------------------------------------|
D|-----------------------------------------------------------------------------|
A|-----------------------------------------------------------------------------|
D|---5-5-----5-5-5-----5-5-5-----5-5-5-----5-5-5-----5-5-5-----5-5-5-----5-5-5-|

G|-----------------------------------------------------------------------------|
D|-----------------------------------------------------------------------------|
A|-----------------------------------------------------------------------------|
D|-5-1-1-----1-1-1-----1-3-3-----3-3-3-----3-5-5-----5-5-5-----5-5-5-----5-5-5-|

G|-----------------------------------------------------------------------------|
D|-----------------------------------------------------------------------------|
A|-----------------------------------------------------------------------------|
D|-5-5-5-----5-5-5-----5-5-5-----5-5-5-----5-5-5-----5-5-5-----5-5-5-----5-5-5-|
   * guitar enters at 0:14 *

G|-----------------------------------------------------------------------------|
D|-----------------------------------------------------------------------------|
A|-----------------------------------------------------------------------------|
D|-5-1-1-----1-1-1-----1-3-3-----3-3-3-----3-5-5-----5-5-5-----5-5-5-----5-5-5-|

G|-------------------------------------|
D|-------------------------------------|
A|-------------------------------------|
D|-5-1-1-----1-1-1-----1-3-3-----3-3-3-|


VERSE 1 (0:31 - 1:04)
G|-----------------------------------------------------------------------------|
D|-----------------------------------------------------------------------------|
A|-----------------------------------------------------------------------------|
D|-3-5-5-----5-5-5-----5-5-5-----5-5-5-----5-5-5-----5-5-5-----5-5-5-----5-5-5-|
                                                                 It's the beauty of

G|-----------------------------------------------------------------------------|
D|-----------------------------------------------------------------------------|
A|-----------------------------------------------------------------------------|
D|-5-1-1-----1-1-1----1-1-1-----1-1-1------1-5-5-----5-5-5-----5-5-5-----5-5-5-|
   confession...

G|-----------------------------------------------------------------------------|
D|-----------------------------------------------------------------------------|
A|-----------------------------------------------------------------------------|
D|-5-1-1-----1-1-1-----1-3-3-----3-3-3-----3-5-5-----5-5-5-----5-5-5-----5-5-5-|
                                                                 Redesigning a

G|-----------------------------------------------------------------------------|
D|-----------------------------------------------------------------------------|
A|-----------------------------------------------------------------------------|
D|-5-1-1-----1-1-1----1-1-1-----1-1-1------1-5-5-----5-5-5-----5-5-5-----5-5-5-|
   connection...

G|-----------------------------------------------------------------------------|
D|-----------------------------------------------------------------------------|
A|-----------------------------------------------------------------------------|
D|-5-1-1-----1-1-1-----1-3-3-----3-3-3-----3-5-5-----5-5-5-----5-5-5-----5-5-5-|


CHORUS (1:05 - 1:28)
G|-----------------------------------------------------------------------------|
D|-----------------------------------------------------------------------------|
A|-----------------------------------------------------------------------------|
D|---5--------3-3---------1-1----1-1-1-----1-1-1-----1-1-1-----1-3-3-----3-3-3-|
        Sit back      and breathe...                      It's nice...

G|-----------------------------------------------------------------------------|
D|-----------------------------------------------------------------------------|
A|-----------------------------------------------------------------------------|
D|-3-3-3-----3-3-3-----3-5-5-----5-5-5-----5-3-3-----3-3-3-----3-1-1-----1-1-1-|
                                    My   head                is reeling...

G|-----------------------------------------------------------------------------|
D|-----------------------------------------------------------------------------|
A|-----------------------------------------------------------------------------|
D|-1-1-1-----1-1-1-----1-3-3-----3-3-3-----3-3-3-----3-3-3-----3-1-1-----1-1-1-|
                  It's nice...                             It's nice...

G|-----------------|
D|-----------------|
A|-----------------|
D|-1-3-3-----3-3-3-|


GUITAR BREAK (1:29 - 1:38)
G|-----------------------------------------------------------------------------|
D|-----------------------------------------------------------------------------|
A|-----------------------------------------------------------------------------|
D|---5-5-----5-5-5-----5-5-5-----5-5-5-----5-5-5-----5-5-5-----5-5-5-----5-5-5-|

G|-----------------------------------------|
D|-----------------------------------------|
A|-----------------------------------------|
D|-----5-1-1-----1-1-1-----1-3-3-----3-3-3-|


VERSE 2 (1:39 - 2:08)
G|-----------------------------------------------------------------------------|
D|-----------------------------------------------------------------------------|
A|-----------------------------------------------------------------------------|
D|-3-5-5-----5-5-5-----5-5-5-----5-5-5-----5-1-1-----1-1-1-----1-1-1-----1-1-1-|
                          Disembody the move action....

G|-----------------------------------------------------------------------------|
D|-----------------------------------------------------------------------------|
A|-----------------------------------------------------------------------------|
D|-1-5-5-----5-5-5-----5-5-5-----5-5-5-----5-1-1-----1-1-1-----1-3-3-----3-3-3-|

G|-----------------------------------------------------------------------------|
D|-----------------------------------------------------------------------------|
A|-----------------------------------------------------------------------------|
D|-3-5-5-----5-5-5-----5-5-5-----5-5-5-----5-1-1-----1-1-1-----1-1-1-----1-1-1-|
                          Overriding the obsession...

G|-----------------------------------------------------------------------------|
D|-----------------------------------------------------------------------------|
A|-----------------------------------------------------------------------------|
D|-1-5-5-----5-5-5-----5-5-5-----5-5-5-----5-1-1-----1-1-1-----1-3-3-----3-3-3-|

G|-------------------------------------|
D|-------------------------------------|
A|-------------------------------------|
D|-3-5-5-----5-5-5-----5-5-5-----5-5-5-|


CHORUS (2:09 - 2:32)
G|-----------------------------------------------------------------------------|
D|-----------------------------------------------------------------------------|
A|-----------------------------------------------------------------------------|
D|---5--------3-3---------1-1----1-1-1-----1-1-1-----1-1-1-----1-3-3-----3-3-3-|
       Sit   back    and breathe...                      It's nice...

G|-----------------------------------------------------------------------------|
D|-----------------------------------------------------------------------------|
A|-----------------------------------------------------------------------------|
D|-3-3-3-----3-3-3-----3-5-5-----5-5-5-----5-3-3-----3-3-3-----3-1-1-----1-1-1-|
                                    My   head                is reeling...

G|-----------------------------------------------------------------------------|
D|-----------------------------------------------------------------------------|
A|-----------------------------------------------------------------------------|
D|-1-1-1-----1-1-1-----1-3-3-----3-3-3-----3-3-3-----3-3-3-----3-1-1-----1-1-1-|
                  It's nice...                             It's nice...

G|-----------------|
D|-----------------|
A|-----------------|
D|-1-3-3-----3-3-3-|


GUITAR BREAK (2:33 - 3:03)
G||----------------------------------------------------------------------------|
D||*---------------------------------------------------------------------------|
A||*---------------------------------------------------------------------------|
D||--5-5-----5-5-5-----5-5-5-----5-5-5-----5-5-5-----5-5-5-----5-5-5-----5-5-5-|

G|------------------------------------------------------------------------------||
D|-----------------------------------------------------------------------------*||
A|-----------------------------------------------------------------------------*||
D|-5-1-1-----1-1-1-----1-3-3-----3-3-3-----5-5-5-----5-5-5-----5-5-5-----5-5-5--||

G|-------------------------------------|
D|-------------------------------------|
A|-------------------------------------|
D|-5-1-1-----1-1-1-----1-3-3-----3-3-3-|


INTERLUDE THINGY (3:04 - 3:36)
G|-----------------------------------------------------------------------------|
D|-----------------------------------------------------------------------------|
A|-------------------------------------------3-3-----3-3-3-----3---------------|
D|-3-5-5-----5-5-5-----5-5-5-----5-5-5-----5---------------------3-3-----3-3-3-|
                          But all the grace is gone                       gone

G|-----------------------------------------------------------------------------|
D|-----------------------------------------------------------------------------|
A|-----------------------------------------------------------------------------|
D|-3-5-5-----5-5-5-----5-5-5-----5-5-5-----5-1-1-----1-1-1-----1-3-3-----3-3-3-|
                          And all the tired scorn                      is gone

G|-----------------------------------------------------------------------------|
D|-----------------------------------------------------------------------------|
A|-------------------------------------------3-3-----3-3-3-----3---------------|
D|-3-5-5-----5-5-5-----5-5-5-----5-5-5-----5---------------------3-3-----3-3-3-|
                          And all the fire is gone                        gone

G|-----------------------------------------------------------------------------|
D|-----------------------------------------------------------------------------|
A|-----------------------------------------------------------------------------|
D|-3-5-5-----5-5-5-----5-5-5-----5-5-5-----5-1-1-----1-1-1-----1-3-3-----3-3-3-|
                         But the reveal is gone                          it's

G|-------------------------------------------------------------------------|
D|-------------------------------------------------------------------------|
A|-------------------------------------------------------------------------|
D|-3-0-0-----0-0-0-----0-0-0-----0-0-0-----00000000000000000000000000000000|
   goooooooooOOooooooooOOooooooooOooOooOooOooOooOooOooOoone


CHORUS (3:37 - 4:27)
G||-------------------------------------------------------------------------|
D||*------------------------------------------------------------------------|
A||*------------------------------------------------------------------------|
D||--5-5-5-5-5-5-5-5-3-3-3-3-3-3-3-3-------1-1----1-1-1-----1-1-1-----1-1-1-|
      1: Sit       back                and breathe...
      2: My        head                is reeling...
      3: Reaching            the         serene...

G --------------------------------------||
D -------------------------------------*||   Repeat
A -------------------------------------*||     x3
D -1-3-3-----3-3-3-----3-3-3-----3-3-3--||
 1: It's nice to know you work alone
 2: It's nice to know you work alone
 3: It's nice to know you work alone

G|------------------------------------------------------------------------|
D|------------------------------------------------------------------------|
A|------------------------------------------------------------------------|
D|-5-5-5-5-5-5-5-5-3-3-3-3-3-3-3-3-------1-1----1-1-1-----1-1-1-----1-1-1-|
         My       head's       stopped   reeling...

G|-----------------------------------------------------------------------------|
D|-----------------------------------------------------------------------------|
A|-----------------------------------------------------------------------------|
D|-1-3-3-----3-3-3-----3-3-3-----3-3-3-----3-1-1-----1-1-1-----1-1-1-----1-1-1-|
     It's nice...                            It's nice...

G|-----------------------------------------------------------------------------|
D|-----------------------------------------------------------------------------|
A|-----------------------------------------------------------------------------|
D|-1-3-3-----3-3-3-----3-3-3-----3-3-3-----3-1-1-----1-1-1-----1-3-3-----3-3-3-|
     It's nice...                            It's nice...


OUTRO (4:28 - end)
G||-------------------------------------------------------------------------------||
D||*-----------------------------------------------------------------------------*||  Repeat
A||*-----------------------------------------------------------------------------*||    x2
D||--5-5-5-----5-5-5-----5-5-5-----5-5-5-----5-5-5-----5-5-5-----5-5-5-----5-5-5--||

G|-----||
D|-----||
A|-----||
D|-5-5-||





If you love this, please rate it! If you hate it, please leave a comment with your 
suggestions for improvement!
                                                   -- Thanks! --
                                            -- Tabbed by: escapist011 --
Suggest correction
Give kudos to tab author, rate the tab!
1 2 3 4 5
comments
print report bad tab
1 comment total.
0 reply
myurineispoop91 10 Jul 23, 2013 07:06 PM

Sounds great dude. It also sounds good with the top string on "E". But having it on "D" just makes it sound lower. So a win, win situation I guess. Great job dude.

guest
You may want to rate the tab now too:
select rating
Wanna post a correction for this tab? Suggest correction