Oops, an error
Loading. Please wait.

Kissing Families Bass Tab

version 2
version 2

Whole song

Interactive

1,810 views 3 this week
no commentswrite comment
1 2 3 4 5
please rate
add to favorites
launch autoscroll
font size
0
reset
guitar tuner
Autoscroll
slow
fast
+/-
esc
set tempo
stop
Help us to improve Ultimate-Guitar.com Take our survey!
×
Difficulty
novice
I just ordered them out from DrBobert’s tabs


0:22 start
G------------------|------------------|   
D------------------|------------------|    
A------------------|------------------|    
E-/9-9-9-9-7-7-7-7-|--0-0-0-0/5-5-5-5-|x2 

G------------------|----------------------| 
D------------------|----------------------| 
A------------------|----------------------| 
E-/9-9-9-9-7-7-7-7-|-/12-12-12-12\5-5-5-5-| 

G------------------|------------------|
D------------------|------------------|   
A------------------|------------------| 
E-/9-9-9-9-7-7-7-7-|--0-0-0-0/5-5-5-5-| 

G------------------|    
D------------------|    
A------------------|    
E-/9-9-9-9-9-9-9-9-|x4 

G-----------------|------------------|------------------|----------|
D-----------------|------------------|------------------|----------|
A-----------------|------------------|------------------|----------|
E/9-9-9-9-9-9-9-9-|--7-7-7-7-7-7-7-7-|--0-0-0-0/5-5-5-5-|--5-5-5-5-|x4


G------------------|------------------|----------------------|----------|
D------------------|------------------|----------------------|----------|
A------------------|------------------|----------------------|----------|
E-/9-9-9-9-9-9-9-9-|--7-7-7-7-7-7-7-7-|-/12-12-12-12-5-5-5-5-|--5-5-5-5-|

G------------------|------------------|------------------|----------|
D------------------|------------------|------------------|----------|
A------------------|------------------|------------------|----------|
E-/9-9-9-9-9-9-9-9-|--7-7-7-7-7-7-7-7-|--0-0-0-0/5-5-5-5-|--5-5-5-5-| x2

x4
G-----------------|-----------------|----------------|-----------------|    
D-----------------|-----9-7-6-------|----------------|-----------------|    
A-----------------|-7-7-------7-----|----------------|-----------------|    
E-9-9-9-9-7-7-7-7-|-------------9-7-|9-9-9-9-7-7-7-7-|-0-0-0-0-5-0-5-0-|  


G------------------|----------|
D------------------|----------|
A------------------|----------|
E--5-0-5-0-5-0-5-0-|--5-0-5-0-|

G------------------|------------------|------------------|----------|
D------------------|------------------|------------------|----------|
A------------------|------------------|------------------|----------|
E-/9-9-9-9-9-9-9-9-|--7-7-7-7-7-7-7-7-|--0-0-0-0/5-5-5-5-|--5-5-5-5-|x3

G------------------|------------------|------------------|----------|
D------------------|------------------|------------------|----------|
A------------------|------------------|------------------|----------|
E-/9-9-9-9-9-9-9-9-|--7-7-7-7-7-7~~~~~|--0-0-0-0/5-5-5-5-|--5-5-5-5-|

G------------------|------------------|------------------|----------|
D------------------|------------------|------------------|----------|
A------------------|------------------|------------------|----------|
E-/9-9-9-9-9-9-9-9-|--7-7-7-7-7-7-7-7-|--0-0-0-0/5-5-5-5-|--5-5-5-5-|x4

G------------------|--------------------------|-----------------|----------|
D------------------|--------------------------|-----------------|----------|
A------------------|--------------------------|-----------------|----------|
E-/9-9-9-9-9-9-9-9-|--11-11-11-11-11-11-11-11-|--12/0-0h5-5-5-5-|--5-5-5-5-|
					      
G------------------|------------------|------------------|----------|
D------------------|------------------|------------------|----------|
A------------------|------------------|------------------|----------|
E-/9-9-9-9-9-9-9-9-|--7-7-7-7-7-7-7-7-|--0-0-0-0/5-5-5-5-|--5-5-5-5-|

G------------------|--------------------------|-----------------|----------|
D------------------|--------------------------|-----------------|----------|
A------------------|--------------------------|-----------------|----------|
E-/9-9-9-9-9-9-9-9-|--11-11-11-11-11-11-11-11-|--12/0-0h5-5-5-5-|--5-5-5-5-|

G------------------|------------------|------------------|----------|
D------------------|------------------|------------------|----------|
A------------------|------------------|------------------|----------|
E-/9-9-9-9-9-9-9-9-|--7-7-7-7-7-7-7-7-|--0-0-0-0/5-5-5-5-|--5-5-5-5-| x3


G------------------|------------------|----------------|------------------|
D------------------|------9-7-6-------|----------------|------------------|
A------------------|--7-7-------7-----|----------------|------------------|
E--9-9-9-9-7-7-7-7-|--------------9-7-|9-9-9-9-7-7-7-7-|--0-0-0-0-5-0-5-0-| x2

G------------------|----------------------|
D------------------|----------------------|
A------------------|----------------------|
E-/9-9-9-9-7-7-7-7-|-/12-12-12-12\5-5-5-5-|

G------------------|------------------|----------------|------------------|
D------------------|------9-7-6-------|----------------|------------------|
A------------------|--7-7-------7-----|----------------|------------------|
E--9-9-9-9-7-7-7-7-|--------------9-7-|9-9-9-9-7-7-7-7-|--0-0-0-0-5-0-5-0-|

G------------------|------------------|
D------------------|------------------|
A------------------|------------------|
E-/9-9-9-9-7-7-7-7-|--0-0-0-0/5-5-5-5-| x2

G------------------|----------------------|
D------------------|----------------------|
A------------------|----------------------|
E-/9-9-9-9-7-7-7-7-|-/12-12-12-12\5-5-5-5-|
 
G------------------|------------------|
D------------------|------------------|
A------------------|------------------|
E-/9-9-9-9-7-7-7-7-|--0-0-0-0/5-5-5-5-|--9--Ring


Kissing families- Silversun Pickups
enjoy
Suggest correction
Give kudos to tab author, rate the tab!
1 2 3 4 5
comments
print report bad tab
guest
You may want to rate the tab now too:
select rating
Wanna post a correction for this tab? Suggest correction