Oops, an error
Loading. Please wait.

Kissing Families Tab

version 4
version 4

Whole song

Interactive

5,968 views 6 this week
no commentswrite comment
1 2 3 4 5
x 9
add to favorites
launch autoscroll
font size
0
reset
how to read this tab
guitar tuner
×
Best way to learn
"Kissing Families"
Autoscroll
slow
fast
+/-
esc
set tempo
stop
Author
This is just the main riff for an acoustic version.  Havent figured out the whole 
song yet. Let me know of changes.


Standard tuning

play this 3 times
e|---------------------------------------------------------------------|
B|---------------------------------------------------------------------|
G|---------------------------------------------------------------------|
D|-11-11-11-11-11-11-11-9-9-9-9-9-9-9-2-2-2-2-7-7-7-7-7-7-7------------|
A|-11-11-11-11-11-11-11-9-9-9-9-9-9-9-2-2-2-2-7-7-7-7-7-7-7------------|
E|-9--9--9--9--9--9--9--7-7-7-7-7-7-7-0-0-0-0-5-5-5-5-5-5-5------------|

play this twice
e|-------------------------------------------------------------------------|
B|-------------------------------------------------------------------------|
G|-------------------------------------------------------------------------|
D|-11-11-11-11-9-9-9-9-2-2-2-2-7-7-7-7-------------------------------------|
A|-11-11-11-11-9-9-9-9-2-2-2-2-7-7-7-7-------------------------------------|
E|-9--9--9--9--7-7-7-7-0-0-0-0-5-5-5-5-------------------------------------|

then
e|-------------------------------------------------------------------------|
B|-------------------------------------------------------------------------|
G|-------------------------------------------------------------------------|
D|-11-11-11-11-9-9-9-9-14-14-14-14-7-7-7-7---------------------------------|
A|-11-11-11-11-9-9-9-9-14-14-14-14-7-7-7-7---------------------------------|
E|-9--9--9--9--7-7-7-7-12-12-12-12-5-5-5-5---------------------------------|

then back to
e|-------------------------------------------------------------------------|
B|-------------------------------------------------------------------------|
G|-------------------------------------------------------------------------|
D|-11-11-11-11-9-9-9-9-2-2-2-2-7-7-7-7-------------------------------------|
A|-11-11-11-11-9-9-9-9-2-2-2-2-7-7-7-7-------------------------------------|
E|-9--9--9--9--7-7-7-7-0-0-0-0-5-5-5-5-------------------------------------|

pretty easy enjoy
Suggest correction
comments
print report bad tab
guest
You may want to rate the tab now too:
select rating
Wanna post a correction for this tab? Suggest correction