Oops, an error
Loading. Please wait.

Latchkey Kids Bass Tab

7 views 3 this week
no commentswrite comment
1 2 3 4 5
3 more votes to show rating
add to favorites
launch autoscroll
font size
0
reset
guitar tuner
Autoscroll
slow
fast
+/-
esc
set tempo
stop
Help us to improve Ultimate-Guitar.com Take our survey!
×
Author
Tuning
D# G# C# F# A# D#
About this tab version
This is how Nikki plays it live. Was this info helpful? Yes No
[Intro]

F#|---------------------------------------------------------------------------|
C#|---------------------------------------------------------------------------|
G#|-7-7-7-7-7-7-7-7-5-5-5-5-5-5-5-5-2-2-2-2-2-2-2-2-3-3-3-3-3-3-3-3-----------|
D#|---------------------------------------------------------------------------|

F#|---------------------------------------------------------------------------|
C#|---------------------------------------------------------------------------|
G#|---------------------------------2-2-2-2-2-2-2-2---------------------------|
D#|-3-3-3-3-3-3-3-3-5-5-5-5-5-5-5-5-----------------0-0-0-0-0-0-0-------------|


[Verse]

F#|---------------------------------------------------------------------------|
C#|---------------------------------------------------------------------------|
G#|-7-7-7-7-7-7-7-7-5-5-5-5-5-5-5-5-2-2-2-2-2-2-2-2-3-3-3-3-3-3-3-3-----------|
D#|---------------------------------------------------------------------------|

F#|---------------------------------------------------------------------------|
C#|---------------------------------------------------------------------------|
G#|---------------------------------2-2-2-2-2-2-2-2---------------------------|
D#|-3-3-3-3-3-3-3-3-5-5-5-5-5-5-5-5-----------------0-0-0-0-0-0-0-------------|



[Chorus]

F#|---------------------------------------------------------------------------------------------------|
C#|---------------------------------------------------------------------------------------------------|
G#|-3-3-3-3-3-3-3-3-3-----------------7-7-7-7-7-7-7-7-3-3-3-3-3-3-3-3-----------------7-7-7-7-7-7-7-7-|
D#|-------------------5-5-5-5-5-5-5-5---------------------------------5-5-5-5-5-5-5-5-----------------|

[Verse]

F#|---------------------------------------------------------------------------|
C#|---------------------------------------------------------------------------|
G#|-7-7-7-7-7-7-7-7-5-5-5-5-5-5-5-5-2-2-2-2-2-2-2-2-3-3-3-3-3-3-3-3-----------|
D#|---------------------------------------------------------------------------|

F#|---------------------------------------------------------------------------|
C#|---------------------------------------------------------------------------|
G#|---------------------------------2-2-2-2-2-2-2-2---------------------------|
D#|-3-3-3-3-3-3-3-3-5-5-5-5-5-5-5-5-----------------0-0-0-0-0-0-0-------------|


[Chorus 2]

F#|---------------------------------------------------------------------------------------------------|
C#|---------------------------------------------------------------------------------------------------|
G#|-3-3-3-3-3-3-3-3-3-----------------7-7-7-7-7-7-7-7-3-3-3-3-3-3-3-3-----------------7-7-7-7-7-7-7-7-|
D#|-------------------5-5-5-5-5-5-5-5---------------------------------5-5-5-5-5-5-5-5-----------------|

F#|---------------------------------------------------------------------------|
C#|---------------------------------------------------------------------------|
G#|-5-5-5-5-5-5-5-5-5-5-5-5-5-5-5-5-------------------------------------------|
D#|---------------------------------------------------------------------------|

"Be still our beating hearts"

F#|---------------------------------------------------------------------------|
C#|---------------------------------------------------------------------------|
G#|-3-3-3-3-------------------------------------------------------------------|
D#|-------------5-5-5-5-------------------------------------------------------|

"You can keep your fingers crossed"

F#|---------------------------------------------------------------------------|
C#|---------------------------------------------------------------------------|
G#|-3-3-3-3-------------------------------------------------------------------|
D#|-------------5-5-5-5-------------------------------------------------------|

Silent till "You keep dancing around"

[Chorus 2]

F#|---------------------------------------------------------------------------------------------------|
C#|---------------------------------------------------------------------------------------------------|
G#|-3-3-3-3-3-3-3-3-3-----------------7-7-7-7-7-7-7-7-3-3-3-3-3-3-3-3-----------------7-7-7-7-7-7-7-7-|
D#|-------------------5-5-5-5-5-5-5-5---------------------------------5-5-5-5-5-5-5-5-----------------|

F#|---------------------------------------------------------------------------|
C#|---------------------------------------------------------------------------|
G#|-5-5-5-5-5-5-5-5-5-5-5-5-5-5-5-5-------------------------------------------|
D#|---------------------------------------------------------------------------|

[Interlude]

F#|---------------------------------------------------------------------------|
C#|---------------------------------------------------------------------------|
G#|---------------------------------------------------------------------------|
D#|-0-0-0-0-0-0-0-0-----0-0-0-0-0-0-0-0---------------------------------------|


[Outro] "Get off the floor"


F#|---------------------------------------------------------------------------|
C#|---------------------------------------------------------------------------|
G#|-3-3-----------------------------------------------------------------------|
D#|-----5-5~------------------------------------------------------------------|


************************************
| ~   Vibrato
************************************
Suggest correction
Give kudos to tab author, rate the tab!
1 2 3 4 5
comments
print report bad tab
guest
You may want to rate the tab now too:
select rating
Wanna post a correction for this tab? Suggest correction