Oops, an error
Loading. Please wait.

Lazy Eye Tab

version 1
version 1

Acoustic

Whole song

Interactive

125,452 views 108 this week
11 commentsread comments
1 2 3 4 5
x 33
add to favorites
launch autoscroll
font size
0
reset
how to read this tab
guitar tuner
Autoscroll
slow
fast
+/-
esc
set tempo
stop
Help us to improve Ultimate-Guitar.com Take our survey!
×
Author
Difficulty
intermediate
-------------------------------------------------------------------------------
                Lazy Eye - Silversun Pickups (Acoustic Version)
-------------------------------------------------------------------------------
Tabbed by: Dan Kish (EchoesOfTheMoon)
Email: dkish2@uiuc.edu

Tuning: Standard

Tabbed for acoustic guitar from a live in-studio performance.

Listen to original for the exact tempos.

e|-------------------------------------------------------|
B|-------------------------------------------------------|
G|-------------------------------------------------------|
D|-------------------------------------------------------| 
A|-11-11-11-11-11-11-11-11-9--9--9--9h11-11-11b12r11-9-9-|
E|-0--0--0--0--0--0--0--0--0--0--0--0----0--0--------0-0-|(x3)

e|----------------------------------------------------|
B|----------------------------------------------------|
G|----------------------------------------------------|
D|----------------------------------------------------|
A|-11-11-11-11-11-11-11-11-9\7/9-9h11-11-11b12r11-9-9-|
E|-0--0--0--0--0--0--0--0--0-----0----0--0--------0-0-|

e|-----------------------------------------|
B|-----------------------------------------|
G|-----------------------------------------|
D|-11-11-11-11-11-11-11-11-9-9-9-9-9-9-9-9-|
A|-11-11-11-11-11-11-11-11-9-9-9-9-9-9-9-9-|
E|-9--9--9--9--9--9--9--9--7-7-7-7-7-7-7-7-|

e|----------------------------------------------|
B|----------------------------------------------|
G|----------------------------------------------|
D|-------------------------9h11p9---------------| 
A|-11-11-11-11-11-11-11-11-9------11-11-11-9h11-|
E|-0--0--0--0--0--0--0--0---------0--0--0--0----|(x4)

e|-------------------------------------------------------|
B|-------------------------------------------------------|
G|-------------------------------------------------------|
D|-------------------------------------------------------| 
A|-11-11-11-11-11-11-11-11-9--9--9--9h11-11-11b12r11-9-9-|
E|-0--0--0--0--0--0--0--0--0--0--0--0----0--0--------0-0-|(x2)

e|---------------------------------|
B|---------------------------------|
G|-6-6-6-6-6-6-6-6-4-4-4-4-4-4-4-4-|
D|-6-6-6-6-6-6-6-6-4-4-4-4-4-4-4-4-|
A|-4-4-4-4-4-4-4-4-2-2-2-2-2-2-2-2-|
E|-4-4-4-4-4-4-4-4-2-2-2-2-2-2-2-2-|

e|----------------------------------------------|
B|----------------------------------------------|
G|----------------------------------------------|
D|-------------------------9h11p9---------------| 
A|-11-11-11-11-11-11-11-11-9------11-11-11-9h11-|
E|-0--0--0--0--0--0--0--0---------0--0--0--0----|(x2)

e|----------------------------------------------------|
B|----------------------------------------------------|
G|----------------------------------------------------|
D|----------------------------------------------------| 
A|-11-11-11-11-11-11-11-11-9\7/9-9h11-11-11b12r11-9-9-|
E|-0--0--0--0--0--0--0--0--0-----0----0--0--------0-0-|(x2)

e|-----------------------------------------|
B|-----------------------------------------|
G|-----------------------------------------|
D|-11-11-11-11-11-11-11-11-9-9-9-9-9-9-9-9-|
A|-11-11-11-11-11-11-11-11-9-9-9-9-9-9-9-9-|
E|-9--9--9--9--9--9--9--9--7-7-7-7-7-7-7-7-|

e|---------------------------------------------------------------------------------------------|
B|---------------------------------------------------------------------------------------------|
G|-9--9--9--9--9--9--9-------------------------------------------------------------4-4-4-4-4-4-|
D|-X--X--X--X--X--X--X---14-14-14-14-12---------------------9---------9------------X-X-X-X-X-X-|
A|-11-11-11-11-11-11-11-----------------14-12h14p12-11-9h11---11-9h11---11-9-------2-2-2-2-2-2-|
E|---------------------------------------------------------------------------12-10-------------|

e|---------------------------------------------------------|
B|---------------------------------------------------------|
G|-9--9--9--9--9--9--XX--11--11-11-11-11--13--13--13b14r13-|
D|-X--X--X--X--X--X--XX--X---X--X--X--X---X---X---X--------|
A|-11-11-11-11-11-11-XX--9---9--9--9--9---11--11--11-------|
E|---------------------------------------------------------|

e|-------------------------------------------------|
B|-------------------------------12-12-12-12-12-12-|
G|-9--9--9--9--9-----11\-9-/-13--13-13-13-13-13-13-|
D|-X--X--X--X--X-----X-\-X-/-X---X--X--X--X--X--X--|
A|-11-11-11-11-11----9-\-7-/-11--11-11-11-11-11-11-|
E|-------------------------------------------------|

e|----------------------------------------------------|
B|----------------------------------------------------|
G|----------------------------------------------------|
D|----------------------------------------------------|
A|-11-11-11-11-11-11-11-11-9\7/9-9h11-11-11b12r11-9-9-|
E|-0--0--0--0--0--0--0--0--0-----0----0--0--------0-0-|

e|-------------------------------------------------------|
B|-------------------------------------------------------|
G|-------------------------------------------------------|
D|-------------------------------------------------------|
A|-11-11-11-11-11-11-11-11-9--9--9--9h11-11-11b12r11-9-9-|
E|-0--0--0--0--0--0--0--0--0--0--0--0----0--0--------0-0-|

e|---------------------------------|
B|---------------------------------|
G|-6-6-6-6-6-6-6-6-4-4-4-4-4-4-4-4-|
D|-6-6-6-6-6-6-6-6-4-4-4-4-4-4-4-4-|
A|-4-4-4-4-4-4-4-4-2-2-2-2-2-2-2-2-|
E|-4-4-4-4-4-4-4-4-2-2-2-2-2-2-2-2-|

e|-------------------------------------|
B|-------------------------------------|
G|-9--9--9--9--9--9--9-9---------------|
D|-X--X--X--X--X--X--X-X---14-14-12----|
A|-11-11-11-11-11-11-1111-----------14-|
E|-------------------------------------|

e|----------------------------------------------------|
B|----------------------------------------------------|
G|----------------------------------------------------|
D|----------------------------------------------------|
A|-11-11-11-11-11-11-11-11-9\7/9-9h11-11-11b12r11-9-9-|
E|-0--0--0--0--0--0--0--0--0-----0----0--0--------0-0-|

e|-------------------------------------------------------|
B|-------------------------------------------------------|
G|-------------------------------------------------------|
D|-------------------------------------------------------|
A|-11-11-11-11-11-11-11-11-9--9--9--9h11-11-11b12r11-9-9-|
E|-0--0--0--0--0--0--0--0--0--0--0--0----0--0--------0-0-|

e|---------------------------------|
B|---------------------------------|
G|-6-6-6-6-6-6-6-6-4-4-4-4-4-4-4-4-|
D|-6-6-6-6-6-6-6-6-4-4-4-4-4-4-4-4-|
A|-4-4-4-4-4-4-4-4-2-2-2-2-2-2-2-2-|
E|-4-4-4-4-4-4-4-4-2-2-2-2-2-2-2-2-|

e|-----------------------------------------------------------------------------|
B|-----------------------------------------------------------------------------|
G|-13-13-13-13--13-13--13-13-13-13--13-13--11--11-11-11-11--13--13-13-13b14r14-|
D|-X--X--X--X---X--X---X--X--X--X---X--X---X---X--X--X--X---X---X--X--X--------|
A|-11-11-11-11--11-11--11-11-11-11--11-11--9---9--9--9--9---11--11-11-11-------|
E|-----------------------------------------------------------------------------|

e|----------------------------------------------------------------------|
B|----------------------------------------------------------------------|
G|-13-13-13-13--13-13--13-13-13-13--13-13--11--11-11-11-11--13--9-9-9-9-|
D|-X--X--X--X---X--X---X--X--X--X---X--X---X---X--X--X--X---X---X-X-X-X-|
A|-11-11-11-11--11-11--11-11-11-11--11-11--9---9--9--9--9---11--7-7-7-7-|
E|----------------------------------------------------------------------|

e|-----------------------------------------------------------------------------|
B|--------------------------------------------------------------12-12-12-12-12-|
G|-13-13-13-13--13-13--13-13-13-13--13-13--11--11-11-11-11--13--13-13-13-13-13-|
D|-X--X--X--X---X--X---X--X--X--X---X--X---X---X--X--X--X---X---X--X--X--X--X--|
A|-11-11-11-11--11-11--11-11-11-11--11-11--9---9--9--9--9---11--11-11-11-11-11-|
E|-----------------------------------------------------------------------------|

e|------------------------------------------------------|
B|------------------------------------------------------|
G|-13-13-13-13--13-13--13-13-13-13--11\-9-/-13-13-13-13-|
D|-X--X--X--X---X--X---X--X--X--X---X-\-X-/-X--X--X--X--|
A|-11-11-11-11--11-11--11-11-11-11--9-\-7-/-11-11-11-11-|
E|------------------------------------------------------|

e|---------------------------------|
B|---------------------------------|
G|-6-6-6-6-6-6-6-6-4-4-4-4-4-4-4-4-|
D|-6-6-6-6-6-6-6-6-4-4-4-4-4-4-4-4-|
A|-4-4-4-4-4-4-4-4-2-2-2-2-2-2-2-2-|
E|-4-4-4-4-4-4-4-4-2-2-2-2-2-2-2-2-|

e|----------------------------------------------|
B|----------------------------------------------|
G|----------------------------------------------|
D|-------------------------9h11p9---------------| 
A|-11-11-11-11-11-11-11-11-9------11-11-11-9h11-|
E|-0--0--0--0--0--0--0--0---------0--0--0--0----|(x2)

e|-----------------------------------------|
B|-----------------------------------------|
G|-----------------------------------------|
D|-11-11-11-11-11-11-11-11-9-9-9-9-9-9-9-9-|
A|-11-11-11-11-11-11-11-11-9-9-9-9-9-9-9-9-|
E|-9--9--9--9--9--9--9--9--7-7-7-7-7-7-7-7-|

e|----------------------------------------------------------------------------------------------|
B|----------------------------------------------------------------------------------------------|
G|---------------------------------------------------------------------------------4--4-4-4-4-4-|
D|---------------------------------------------------9---------9h11p9--------------X--X-X-X-X-X-|
A|-14-14-14-14-14-14-14-14-14-12-11--11h12p11-9-9h11---11-9h11--------11-9-7-6-7-6-2--2-2-2-2-2-|
E|----------------------------------------------------------------------------------------------|

e|-----------------------------------------------------------------------------|
B|-----------------------------------------------------------------------------|
G|-13-13-13-13--13-13--13-13-13-13--13-13--11--11-11-11-11--13--13-13-13b14r14-|
D|-X--X--X--X---X--X---X--X--X--X---X--X---X---X--X--X--X---X---X--X--X--------|
A|-11-11-11-11--11-11--11-11-11-11--11-11--9---9--9--9--9---11--11-11-11-------|
E|-----------------------------------------------------------------------------|

e|------------------------------------------------------|
B|------------------------------------------------------|
G|-13-13-13-13--13-13--13-13-13-13--11\-9-/-13-13-13-13-|
D|-X--X--X--X---X--X---X--X--X--X---X-\-X-/-X--X--X--X--|
A|-11-11-11-11--11-11--11-11-11-11--9-\-7-/-11-11-11-11-|
E|------------------------------------------------------|

e|---------------------------------0-0-0-0-0-0-0-0-0-0-0-0-0-0-0-0-0-0-0-0-0-0-0-0-0-0-0-0-0-0-0-0-|
B|---------------------------------0-0-0-0-0-0-0-0-0-0-0-0-0-0-0-0-0-0-0-0-0-0-0-0-0-0-0-0-0-0-0-0-|
G|-6-6-6-6-6-6-6-6-4-4-4-4-4-4-4-4-1-1-1-1-1-1-1-1-1-1-1-1-1-1-1-1-1-1-1-1-1-1-1-1-1-1-1-1-1-1-1-1-|
D|-6-6-6-6-6-6-6-6-4-4-4-4-4-4-4-4-2-2-2-2-2-2-2-2-2-2-2-2-2-2-2-2-2-2-2-2-2-2-2-2-2-2-2-2-2-2-2-2-|
A|-4-4-4-4-4-4-4-4-2-2-2-2-2-2-2-2-2-2-2-2-2-2-2-2-2-2-2-2-2-2-2-2-2-2-2-2-2-2-2-2-2-2-2-2-2-2-2-2-|
E|-4-4-4-4-4-4-4-4-2-2-2-2-2-2-2-2-0-0-0-0-0-0-0-0-0-0-0-0-0-0-0-0-0-0-0-0-0-0-0-0-0-0-0-0-0-0-0-0-|

e|---------------------------------|
B|---------------------------------|
G|-6-6-6-6-6-6-6-6-4-4-4-4-4-4-4-4-|
D|-6-6-6-6-6-6-6-6-4-4-4-4-4-4-4-4-|
A|-4-4-4-4-4-4-4-4-2-2-2-2-2-2-2-2-|
E|-4-4-4-4-4-4-4-4-2-2-2-2-2-2-2-2-|

e|----------------------------------------------------------------|
B|----------------------------------------------------------------|
G|-------13-13-13-------13-13-13-------13-13-13-------13-13-13----|
D|-------X--X--X--------X--X--X--------X--X--X--------X--X--X-----| 
A|-11-11-11-11-11-11-11-11-11-11-11-11-11-11-11-11-11-11-11-11-11-|
E|-0--0--0--0--0--0--0--0--0--0--0--0--0--0--0--0--0--0--0--0--0--|(x5)

e|---------------------------------|
B|---------------------------------|
G|-6-6-6-6-6-6-6-6-4-4-4-4-4-4-4-4-|
D|-6-6-6-6-6-6-6-6-4-4-4-4-4-4-4-4-|
A|-4-4-4-4-4-4-4-4-2-2-2-2-2-2-2-2-|
E|-4-4-4-4-4-4-4-4-2-2-2-2-2-2-2-2-|

e|----------------------------------------------|
B|----------------------------------------------|
G|----------------------------------------------|
D|-------------------------9h11p9---------------| 
A|-11-11-11-11-11-11-11-11-9------11-11-11-9h11-|
E|-0--0--0--0--0--0--0--0---------0--0--0--0----|(x4)

e|-------------------------------------------------------|
B|-------------------------------------------------------|
G|-------------------------------------------------------|
D|-------------------------------------------------------|
A|-11-11-11-11-11-11-11-11-9--9--9--9h11-11-11b12r11-9-9-|
E|-0--0--0--0--0--0--0--0--0--0--0--0----0--0--------0-0-|

e|----------------------------------------------------|
B|----------------------------------------------------|
G|----------------------------------------------------|
D|----------------------------------------------------|
A|-11-11-11-11-11-11-11-11-9\7/9-9h11-11-11b12r11-9-9-|
E|-0--0--0--0--0--0--0--0--0-----0----0--0--------0-0-|

e|-------------------------------------------------------|
B|-------------------------------------------------------|
G|-------------------------------------------------------|
D|-------------------------------------------------------| 
A|-11-11-11-11-11-11-11-11-9--9--9--9h11-11-11b12r11-9-9-|
E|-0--0--0--0--0--0--0--0--0--0--0--0----0--0--------0-0-|(x3)

e|----------------------------------------------------------|
B|-------------------------------------12-12--12--12-12--12-|
G|-------------------------11\-9-/-13--13-13--13--13-13--13-|
D|-------------------------X-\-X-/-X---X--X---X---X--X---X--| Let Ring
A|-11-11-11-11-11-11-11-11-9-\-7-/-11--11-11--11--11-11--11-|
E|-0--0--0--0--0--0--0--0-----------------------------------|

************************************

| h  Hammer-on
| p  Pull-off
| r  Release
| b  Bend
| /  Slide up
| \  Slide down
| x  mute note

************************************
Suggest correction
comments
print report bad tab
11 comments total. Showing first comments.
0 reply
toolemerica 30 Jun 04, 2007 04:01 PM

Y U GOIN AND GONE DONE DIS GEEERRRAAAAHHHHHHH AND SIME STUFF

+3 reply
DrBobert 93 Jun 05, 2007 10:32 AM

That may be the most intelligent I've ever read, toolemerica...

The tab's pretty good, but maybe redundant as the other tabs are practically the same.

Nonetheless I like it.

0 reply
PeteTLT 52 Jun 27, 2007 07:57 PM

One thing, it is not the exact acoustic the Silversun Pickups use. Check out youtube and try to tab that acoustic version

guest
You may want to rate the tab now too:
select rating
Wanna post a correction for this tab? Suggest correction