Oops, an error
Loading. Please wait.

Lazy Eye Acoustic Tab

version 1
version 1

Whole song

120,083 views 129 this week
10 commentsread comments
1 2 3 4 5
excellent!
x 27
add to favorites
launch autoscroll
font size
0
reset
how to read this tab
guitar tuner
Tab Pro tools
  • play this tab
  • loop segment
  • change instrument
  • show fretboard
  • metronome
Autoscroll
slow
fast
+/-
esc
set tempo
stop
Contributor
Difficulty
intermediate
-------------------------------------------------------------------------------
                Lazy Eye - Silversun Pickups (Acoustic Version)
-------------------------------------------------------------------------------
Tabbed by: Dan Kish (EchoesOfTheMoon)
Email: dkish2@uiuc.edu

Tuning: Standard

Tabbed for acoustic guitar from a live in-studio performance.

Listen to original for the exact tempos.

e|-------------------------------------------------------|
B|-------------------------------------------------------|
G|-------------------------------------------------------|
D|-------------------------------------------------------| X3
A|-11-11-11-11-11-11-11-11-9--9--9--9h11-11-11b12r11-9-9-|
E|-0--0--0--0--0--0--0--0--0--0--0--0----0--0--------0-0-|

e|----------------------------------------------------|
B|----------------------------------------------------|
G|----------------------------------------------------|
D|----------------------------------------------------|
A|-11-11-11-11-11-11-11-11-9\7/9-9h11-11-11b12r11-9-9-|
E|-0--0--0--0--0--0--0--0--0-----0----0--0--------0-0-|

e|-----------------------------------------|
B|-----------------------------------------|
G|-----------------------------------------|
D|-11-11-11-11-11-11-11-11-9-9-9-9-9-9-9-9-|
A|-11-11-11-11-11-11-11-11-9-9-9-9-9-9-9-9-|
E|-9--9--9--9--9--9--9--9--7-7-7-7-7-7-7-7-|

e|----------------------------------------------|
B|----------------------------------------------|
G|----------------------------------------------|
D|-------------------------9h11p9---------------| X4
A|-11-11-11-11-11-11-11-11-9------11-11-11-9h11-|
E|-0--0--0--0--0--0--0--0---------0--0--0--0----|

e|-------------------------------------------------------|
B|-------------------------------------------------------|
G|-------------------------------------------------------|
D|-------------------------------------------------------| X2
A|-11-11-11-11-11-11-11-11-9--9--9--9h11-11-11b12r11-9-9-|
E|-0--0--0--0--0--0--0--0--0--0--0--0----0--0--------0-0-|

e|---------------------------------|
B|---------------------------------|
G|-6-6-6-6-6-6-6-6-4-4-4-4-4-4-4-4-|
D|-6-6-6-6-6-6-6-6-4-4-4-4-4-4-4-4-|
A|-4-4-4-4-4-4-4-4-2-2-2-2-2-2-2-2-|
E|-4-4-4-4-4-4-4-4-2-2-2-2-2-2-2-2-|

e|----------------------------------------------|
B|----------------------------------------------|
G|----------------------------------------------|
D|-------------------------9h11p9---------------| X2
A|-11-11-11-11-11-11-11-11-9------11-11-11-9h11-|
E|-0--0--0--0--0--0--0--0---------0--0--0--0----|

e|----------------------------------------------------|
B|----------------------------------------------------|
G|----------------------------------------------------|
D|----------------------------------------------------| X2
A|-11-11-11-11-11-11-11-11-9\7/9-9h11-11-11b12r11-9-9-|
E|-0--0--0--0--0--0--0--0--0-----0----0--0--------0-0-|

e|-----------------------------------------|
B|-----------------------------------------|
G|-----------------------------------------|
D|-11-11-11-11-11-11-11-11-9-9-9-9-9-9-9-9-|
A|-11-11-11-11-11-11-11-11-9-9-9-9-9-9-9-9-|
E|-9--9--9--9--9--9--9--9--7-7-7-7-7-7-7-7-|

e|---------------------------------------------------------------------------------------------|
B|---------------------------------------------------------------------------------------------|
G|-9--9--9--9--9--9--9-------------------------------------------------------------4-4-4-4-4-4-|
D|-X--X--X--X--X--X--X---14-14-14-14-12---------------------9---------9------------X-X-X-X-X-X-|
A|-11-11-11-11-11-11-11-----------------14-12h14p12-11-9h11---11-9h11---11-9-------2-2-2-2-2-2-|
E|---------------------------------------------------------------------------12-10-------------|

e|---------------------------------------------------------|
B|---------------------------------------------------------|
G|-9--9--9--9--9--9--XX--11--11-11-11-11--13--13--13b14r13-|
D|-X--X--X--X--X--X--XX--X---X--X--X--X---X---X---X--------|
A|-11-11-11-11-11-11-XX--9---9--9--9--9---11--11--11-------|
E|---------------------------------------------------------|

e|-------------------------------------------------|
B|-------------------------------12-12-12-12-12-12-|
G|-9--9--9--9--9-----11\-9-/-13--13-13-13-13-13-13-|
D|-X--X--X--X--X-----X-\-X-/-X---X--X--X--X--X--X--|
A|-11-11-11-11-11----9-\-7-/-11--11-11-11-11-11-11-|
E|-------------------------------------------------|

e|----------------------------------------------------|
B|----------------------------------------------------|
G|----------------------------------------------------|
D|----------------------------------------------------|
A|-11-11-11-11-11-11-11-11-9\7/9-9h11-11-11b12r11-9-9-|
E|-0--0--0--0--0--0--0--0--0-----0----0--0--------0-0-|

e|-------------------------------------------------------|
B|-------------------------------------------------------|
G|-------------------------------------------------------|
D|-------------------------------------------------------|
A|-11-11-11-11-11-11-11-11-9--9--9--9h11-11-11b12r11-9-9-|
E|-0--0--0--0--0--0--0--0--0--0--0--0----0--0--------0-0-|

e|---------------------------------|
B|---------------------------------|
G|-6-6-6-6-6-6-6-6-4-4-4-4-4-4-4-4-|
D|-6-6-6-6-6-6-6-6-4-4-4-4-4-4-4-4-|
A|-4-4-4-4-4-4-4-4-2-2-2-2-2-2-2-2-|
E|-4-4-4-4-4-4-4-4-2-2-2-2-2-2-2-2-|

e|-------------------------------------|
B|-------------------------------------|
G|-9--9--9--9--9--9--9-9---------------|
D|-X--X--X--X--X--X--X-X---14-14-12----|
A|-11-11-11-11-11-11-1111-----------14-|
E|-------------------------------------|

e|----------------------------------------------------|
B|----------------------------------------------------|
G|----------------------------------------------------|
D|----------------------------------------------------|
A|-11-11-11-11-11-11-11-11-9\7/9-9h11-11-11b12r11-9-9-|
E|-0--0--0--0--0--0--0--0--0-----0----0--0--------0-0-|

e|-------------------------------------------------------|
B|-------------------------------------------------------|
G|-------------------------------------------------------|
D|-------------------------------------------------------|
A|-11-11-11-11-11-11-11-11-9--9--9--9h11-11-11b12r11-9-9-|
E|-0--0--0--0--0--0--0--0--0--0--0--0----0--0--------0-0-|

e|---------------------------------|
B|---------------------------------|
G|-6-6-6-6-6-6-6-6-4-4-4-4-4-4-4-4-|
D|-6-6-6-6-6-6-6-6-4-4-4-4-4-4-4-4-|
A|-4-4-4-4-4-4-4-4-2-2-2-2-2-2-2-2-|
E|-4-4-4-4-4-4-4-4-2-2-2-2-2-2-2-2-|

e|-----------------------------------------------------------------------------|
B|-----------------------------------------------------------------------------|
G|-13-13-13-13--13-13--13-13-13-13--13-13--11--11-11-11-11--13--13-13-13b14r14-|
D|-X--X--X--X---X--X---X--X--X--X---X--X---X---X--X--X--X---X---X--X--X--------|
A|-11-11-11-11--11-11--11-11-11-11--11-11--9---9--9--9--9---11--11-11-11-------|
E|-----------------------------------------------------------------------------|

e|----------------------------------------------------------------------|
B|----------------------------------------------------------------------|
G|-13-13-13-13--13-13--13-13-13-13--13-13--11--11-11-11-11--13--9-9-9-9-|
D|-X--X--X--X---X--X---X--X--X--X---X--X---X---X--X--X--X---X---X-X-X-X-|
A|-11-11-11-11--11-11--11-11-11-11--11-11--9---9--9--9--9---11--7-7-7-7-|
E|----------------------------------------------------------------------|

e|-----------------------------------------------------------------------------|
B|--------------------------------------------------------------12-12-12-12-12-|
G|-13-13-13-13--13-13--13-13-13-13--13-13--11--11-11-11-11--13--13-13-13-13-13-|
D|-X--X--X--X---X--X---X--X--X--X---X--X---X---X--X--X--X---X---X--X--X--X--X--|
A|-11-11-11-11--11-11--11-11-11-11--11-11--9---9--9--9--9---11--11-11-11-11-11-|
E|-----------------------------------------------------------------------------|

e|------------------------------------------------------|
B|------------------------------------------------------|
G|-13-13-13-13--13-13--13-13-13-13--11\-9-/-13-13-13-13-|
D|-X--X--X--X---X--X---X--X--X--X---X-\-X-/-X--X--X--X--|
A|-11-11-11-11--11-11--11-11-11-11--9-\-7-/-11-11-11-11-|
E|------------------------------------------------------|

e|---------------------------------|
B|---------------------------------|
G|-6-6-6-6-6-6-6-6-4-4-4-4-4-4-4-4-|
D|-6-6-6-6-6-6-6-6-4-4-4-4-4-4-4-4-|
A|-4-4-4-4-4-4-4-4-2-2-2-2-2-2-2-2-|
E|-4-4-4-4-4-4-4-4-2-2-2-2-2-2-2-2-|

e|----------------------------------------------|
B|----------------------------------------------|
G|----------------------------------------------|
D|-------------------------9h11p9---------------| X2
A|-11-11-11-11-11-11-11-11-9------11-11-11-9h11-|
E|-0--0--0--0--0--0--0--0---------0--0--0--0----|

e|-----------------------------------------|
B|-----------------------------------------|
G|-----------------------------------------|
D|-11-11-11-11-11-11-11-11-9-9-9-9-9-9-9-9-|
A|-11-11-11-11-11-11-11-11-9-9-9-9-9-9-9-9-|
E|-9--9--9--9--9--9--9--9--7-7-7-7-7-7-7-7-|

e|----------------------------------------------------------------------------------------------|
B|----------------------------------------------------------------------------------------------|
G|---------------------------------------------------------------------------------4--4-4-4-4-4-|
D|---------------------------------------------------9---------9h11p9--------------X--X-X-X-X-X-|
A|-14-14-14-14-14-14-14-14-14-12-11--11h12p11-9-9h11---11-9h11--------11-9-7-6-7-6-2--2-2-2-2-2-|
E|----------------------------------------------------------------------------------------------|

e|-----------------------------------------------------------------------------|
B|-----------------------------------------------------------------------------|
G|-13-13-13-13--13-13--13-13-13-13--13-13--11--11-11-11-11--13--13-13-13b14r14-|
D|-X--X--X--X---X--X---X--X--X--X---X--X---X---X--X--X--X---X---X--X--X--------|
A|-11-11-11-11--11-11--11-11-11-11--11-11--9---9--9--9--9---11--11-11-11-------|
E|-----------------------------------------------------------------------------|

e|------------------------------------------------------|
B|------------------------------------------------------|
G|-13-13-13-13--13-13--13-13-13-13--11\-9-/-13-13-13-13-|
D|-X--X--X--X---X--X---X--X--X--X---X-\-X-/-X--X--X--X--|
A|-11-11-11-11--11-11--11-11-11-11--9-\-7-/-11-11-11-11-|
E|------------------------------------------------------|

e|---------------------------------0-0-0-0-0-0-0-0-0-0-0-0-0-0-0-0-0-0-0-0-0-0-0-0-0-0-0-0-0-0-0-0-|
B|---------------------------------0-0-0-0-0-0-0-0-0-0-0-0-0-0-0-0-0-0-0-0-0-0-0-0-0-0-0-0-0-0-0-0-|
G|-6-6-6-6-6-6-6-6-4-4-4-4-4-4-4-4-1-1-1-1-1-1-1-1-1-1-1-1-1-1-1-1-1-1-1-1-1-1-1-1-1-1-1-1-1-1-1-1-|
D|-6-6-6-6-6-6-6-6-4-4-4-4-4-4-4-4-2-2-2-2-2-2-2-2-2-2-2-2-2-2-2-2-2-2-2-2-2-2-2-2-2-2-2-2-2-2-2-2-|
A|-4-4-4-4-4-4-4-4-2-2-2-2-2-2-2-2-2-2-2-2-2-2-2-2-2-2-2-2-2-2-2-2-2-2-2-2-2-2-2-2-2-2-2-2-2-2-2-2-|
E|-4-4-4-4-4-4-4-4-2-2-2-2-2-2-2-2-0-0-0-0-0-0-0-0-0-0-0-0-0-0-0-0-0-0-0-0-0-0-0-0-0-0-0-0-0-0-0-0-|

e|---------------------------------|
B|---------------------------------|
G|-6-6-6-6-6-6-6-6-4-4-4-4-4-4-4-4-|
D|-6-6-6-6-6-6-6-6-4-4-4-4-4-4-4-4-|
A|-4-4-4-4-4-4-4-4-2-2-2-2-2-2-2-2-|
E|-4-4-4-4-4-4-4-4-2-2-2-2-2-2-2-2-|

e|----------------------------------------------------------------|
B|----------------------------------------------------------------|
G|-------13-13-13-------13-13-13-------13-13-13-------13-13-13----|
D|-------X--X--X--------X--X--X--------X--X--X--------X--X--X-----| X5
A|-11-11-11-11-11-11-11-11-11-11-11-11-11-11-11-11-11-11-11-11-11-|
E|-0--0--0--0--0--0--0--0--0--0--0--0--0--0--0--0--0--0--0--0--0--|

e|---------------------------------|
B|---------------------------------|
G|-6-6-6-6-6-6-6-6-4-4-4-4-4-4-4-4-|
D|-6-6-6-6-6-6-6-6-4-4-4-4-4-4-4-4-|
A|-4-4-4-4-4-4-4-4-2-2-2-2-2-2-2-2-|
E|-4-4-4-4-4-4-4-4-2-2-2-2-2-2-2-2-|

e|----------------------------------------------|
B|----------------------------------------------|
G|----------------------------------------------|
D|-------------------------9h11p9---------------| X4
A|-11-11-11-11-11-11-11-11-9------11-11-11-9h11-|
E|-0--0--0--0--0--0--0--0---------0--0--0--0----|

e|-------------------------------------------------------|
B|-------------------------------------------------------|
G|-------------------------------------------------------|
D|-------------------------------------------------------|
A|-11-11-11-11-11-11-11-11-9--9--9--9h11-11-11b12r11-9-9-|
E|-0--0--0--0--0--0--0--0--0--0--0--0----0--0--------0-0-|

e|----------------------------------------------------|
B|----------------------------------------------------|
G|----------------------------------------------------|
D|----------------------------------------------------|
A|-11-11-11-11-11-11-11-11-9\7/9-9h11-11-11b12r11-9-9-|
E|-0--0--0--0--0--0--0--0--0-----0----0--0--------0-0-|

e|-------------------------------------------------------|
B|-------------------------------------------------------|
G|-------------------------------------------------------|
D|-------------------------------------------------------| X3
A|-11-11-11-11-11-11-11-11-9--9--9--9h11-11-11b12r11-9-9-|
E|-0--0--0--0--0--0--0--0--0--0--0--0----0--0--------0-0-|

e|----------------------------------------------------------|
B|-------------------------------------12-12--12--12-12--12-|
G|-------------------------11\-9-/-13--13-13--13--13-13--13-|
D|-------------------------X-\-X-/-X---X--X---X---X--X---X--| Let Ring
A|-11-11-11-11-11-11-11-11-9-\-7-/-11--11-11--11--11-11--11-|
E|-0--0--0--0--0--0--0--0-----------------------------------|

And that's it.  Enjoy!

This is my first tab, so please rate.

| /  slide up
| \  slide down
| h  hammer-on
| p  pull-off
| b  bend
| r  release
| X  Mute note
===============================================================================
comments
print report bad tab
10 comments total. Showing first comments.
0 reply
toolemerica wrote on June 4 2007, 04:01 pm

Y U GOIN AND GONE DONE DIS GEEERRRAAAAHHHHHHH AND SIME STUFF

+3 reply
DrBobert wrote on June 5 2007, 10:32 am

That may be the most intelligent I've ever read, toolemerica...

The tab's pretty good, but maybe redundant as the other tabs are practically the same.

Nonetheless I like it.

0 reply
PeteTLT wrote on June 27 2007, 07:57 pm

One thing, it is not the exact acoustic the Silversun Pickups use. Check out youtube and try to tab that acoustic version

I want to post or [tab]
guest
You may want to rate the tab now too:
select rating
Please do not post tabs as comments. Select "correction" instead!