Oops, an error
Loading. Please wait.

Lazy Eye Tab

version 2
version 2

Acoustic

Whole song

Interactive

8,330 views 6 this week
no commentswrite comment
1 2 3 4 5
x 3
add to favorites
launch autoscroll
font size
0
reset
how to read this tab
guitar tuner
Autoscroll
slow
fast
+/-
esc
set tempo
stop
Help us to improve Ultimate-Guitar.com Take our survey!
×
Author
This is the version in this acoustic video:

http://www.youtube.com/watch?v=AkSWRx1AhV0&feature=related

I also used parts from other tabs but nobody had the solo and some involved multiple guitars

Credit to:
hackysackdude
adam2008 

e]-----------------------------------------------|
B]-----------------------------------------------|
G]-----------------------------------------------|
D]-----------------------------------------------|  X3
A]-11-11-11-11-11-11-11-11-9-9-9-11-11b-11/12\11-|
E]-0--0--0--0--0--0--0--0--0-0-0-0--0--0---------|

e]----------------------------------------------|
B]----------------------------------------------|
G]----------------------------------------------|
D]----------------------------------------------|    X1
A]-11-11-11-11-11-11-11-11-9\7/9-11-11-11-11-11-|
E]-0--0--0--0--0--0--0--0--0-----0--0--0--0--0--|

e]------------------------------------|
B]------------------------------------|
G]------------------------------------|
D]-11-11-11-11-11-11-11-9-9-9-9-9-9-9-|
A]-11-11-11-11-11-11-11-9-9-9-9-9-9-9-|
E]-9--9--9--9--9--9--9--7-7-7-7-7-7-7-|


e]---------------------------------------------------|
B]---------------------------------------------------|
G]---------------------------------------------------|
D]------------------------9h11p9---------------------|  X4
A]-11-11-11-11-11-11-11-11-------11-11-11-11-9-9h11b-|
E]-0--0--0--0--0--0--0--0--------0--0--0--0--0-0-0---|

e]-----------------------------------------------|
B]-----------------------------------------------|
G]-----------------------------------------------|
D]-----------------------------------------------|  X2
A]-11-11-11-11-11-11-11-11-9-9-9-11-11b-11/12\11-|
E]-0--0--0--0--0--0--0--0--0-0-0-0--0--0---------|

e]------------------------------------|
B]------------------------------------|
G]-6-6-6-6-6-6-6--4-4-4-4-4-4-4-------|
D]-6-6-6-6-6-6-6--4-4-4-4-4-4-4-------|  X1
A]-4-4-4-4-4-4-4--2-2-2-2-2-2-2-------|
E]------------------------------------|


e]---------------------------------------------------|
B]---------------------------------------------------|
G]---------------------------------------------------|
D]------------------------9h11p9---------------------|  X2
A]-11-11-11-11-11-11-11-11-------11-11-11-11-9-9h11b-|
E]-0--0--0--0--0--0--0--0--------0--0--0--0--0-0-0---|

e]----------------------------------------------|
B]----------------------------------------------|
G]----------------------------------------------|
D]----------------------------------------------|    X1
A]-11-11-11-11-11-11-11-11-9\7/9-11-11-11-11-11-|
E]-0--0--0--0--0--0--0--0--0-----0--0--0--0--0--|

e]-----------------------------------------------|
B]-----------------------------------------------|
G]-----------------------------------------------|
D]-----------------------------------------------|  X1
A]-11-11-11-11-11-11-11-11-9-9-9-11-11b-11/12\11-|
E]-0--0--0--0--0--0--0--0--0-0-0-0--0--0---------|

e]------------------------------------|
B]------------------------------------|
G]-6-6-6-6-6-6-6--4-4-4-4-4-4-4-------|
D]-6-6-6-6-6-6-6--4-4-4-4-4-4-4-------|  X1
A]-4-4-4-4-4-4-4--2-2-2-2-2-2-2-------|
E]------------------------------------|


e]----------------------------------------------------------------------|
B]----------------------------------------------------------------------|
G]----------------------------------------------------------------------|
D]-14-14-14-12-------------------------------9-----------9--------------|
A]-------------14-12-12h14-12-11-9-9h11-9h11---11-9-9h11---11-9-7-6-4-2-|
E]----------------------------------------------------------------------|

e]------------------------------------------|
B]------------------------------------------|
G]-9-9-9-9-9-9-9--11-11--13-13-13-13-13-----|
D]-x-x-x-x-x-x-x--x--x---x--x--x--x--x------|
A]-7-7-7-7-7-7-7--9--9---11-11-11-11-11-----|
E]------------------------------------------|

e]--------------------------------------------|
B]--------------------------------------------|
G]-9-9-9-9-9-9-9--11-9-11--13-13-13-13-13-----|
D]-x-x-x-x-x-x-x--x--x-x---x--x--x--x--x------|
A]-7-7-7-7-7-7-7--9--7-9---11-11-11-11-11-----|
E]--------------------------------------------|

e]-----------------------------------------------|
B]-----------------------------------------------|
G]-----------------------------------------------|
D]-----------------------------------------------|  X2
A]-11-11-11-11-11-11-11-11-9-9-9-11-11b-11/12\11-|
E]-0--0--0--0--0--0--0--0--0-0-0-0--0--0---------|


e]------------------------------------|
B]------------------------------------|
G]-6-6-6-6-6-6-6--4-4-4-4-4-4-4-------|
D]-6-6-6-6-6-6-6--4-4-4-4-4-4-4-------|  X1
A]-4-4-4-4-4-4-4--2-2-2-2-2-2-2-------|
E]------------------------------------|

e]---------------------------------------|
B]---------------------------------------|
G]---------------------------------------|
D]----------------14-14-14-12------------|
A]-11-11-11-11-11-------------14-12-11b--|
E]-0--0--0--0--0-------------------------|


e]----------------------------------------------|
B]----------------------------------------------|
G]----------------------------------------------|
D]----------------------------------------------|    X1
A]-11-11-11-11-11-11-11-11-9\7/9-11-11-11-11-11-|
E]-0--0--0--0--0--0--0--0--0-----0--0--0--0--0--|


e]-----------------------------------------------|
B]-----------------------------------------------|
G]-----------------------------------------------|
D]-----------------------------------------------|  X1
A]-11-11-11-11-11-11-11-11-9-9-9-11-11b-11/12\11-|
E]-0--0--0--0--0--0--0--0--0-0-0-0--0--0---------|

e]------------------------------------|
B]------------------------------------|
G]-6-6-6-6-6-6-6--4-4-4-4-4-4-4-------|
D]-6-6-6-6-6-6-6--4-4-4-4-4-4-4-------|  X1
A]-4-4-4-4-4-4-4--2-2-2-2-2-2-2-------|
E]------------------------------------|

e]------------------------------------------|
B]------------------------------------------|
G]-9-9-9-9-9-9-9--11-11--13-13-13-13-13-----|
D]-x-x-x-x-x-x-x--x--x---x--x--x--x--x------|  X3
A]-7-7-7-7-7-7-7--9--9---11-11-11-11-11-----|
E]------------------------------------------|

e]--------------------------------------------|
B]--------------------------------------------|
G]-9-9-9-9-9-9-9--11-9-11--13-13-13-13-13-----|
D]-x-x-x-x-x-x-x--x--x-x---x--x--x--x--x------|  X1
A]-7-7-7-7-7-7-7--9--7-9---11-11-11-11-11-----|
E]--------------------------------------------|


e]------------------------------------|
B]------------------------------------|
G]-6-6-6-6-6-6-6--4-4-4-4-4-4-4-------|
D]-6-6-6-6-6-6-6--4-4-4-4-4-4-4-------|  X1
A]-4-4-4-4-4-4-4--2-2-2-2-2-2-2-------|
E]------------------------------------|

e]---------------------------------------------------|
B]---------------------------------------------------|
G]---------------------------------------------------|
D]------------------------9h11p9---------------------|  X2
A]-11-11-11-11-11-11-11-11-------11-11-11-11-9-9h11b-|
E]-0--0--0--0--0--0--0--0--------0--0--0--0--0-0-0---|


e]------------------------------------|
B]------------------------------------|
G]-6-6-6-6-6-6-6--4-4-4-4-4-4-4-------|
D]-6-6-6-6-6-6-6--4-4-4-4-4-4-4-------|  X1
A]-4-4-4-4-4-4-4--2-2-2-2-2-2-2-------|
E]------------------------------------|

e]----------------------------------------------------------------------|
B]----------------------------------------------------------------------|
G]----------------------------------------------------------------------|
D]-14-14-14-12-------------------------------9-----------9--------------|
A]-------------14-12-12h14-12-11-9-9h11-9h11---11-9-9h11---11-9-7-6-4-2-|
E]----------------------------------------------------------------------|

e]------------------------------------------|
B]------------------------------------------|
G]-9-9-9-9-9-9-9--11-11--13-13-13-13-13-----|
D]-x-x-x-x-x-x-x--x--x---x--x--x--x--x------|
A]-7-7-7-7-7-7-7--9--9---11-11-11-11-11-----|
E]------------------------------------------|

e]--------------------------------------------|
B]--------------------------------------------|
G]-9-9-9-9-9-9-9--11-9-11--13-13-13-13-13-----|
D]-x-x-x-x-x-x-x--x--x-x---x--x--x--x--x------|
A]-7-7-7-7-7-7-7--9--7-9---11-11-11-11-11-----|
E]--------------------------------------------|


e]------------------------------------|
B]------------------------------------|
G]-6-6-6-6-6-6-6--8-8-8-8-8-8-8-------|
D]-6-6-6-6-6-6-6--8-8-8-8-8-8-8-------|  X1
A]-4-4-4-4-4-4-4--6-6-6-6-6-6-6-------|
E]------------------------------------|


e]-------------------------------------------------------------------|
B]-------------------------------------------------------------------|
G]-9-9-9-9-9-9-9--11-11--13-13-13-13-13-13-13-14-14-13-13-13-13-13---|
D]-x-x-x-x-x-x-x--x--x---x--x--x--x--x--x--x--x--x--x--x--x--x--x----|
A]-7-7-7-7-7-7-7--9--9---11-11-11-11-11-11-11-12-12-11-11-11-11-11---|
E]-------------------------------------------------------------------|

e]--------------------|
B]--------------------|
G]-13-11-13-11-9------|
D]-x--x--x--x--x------|
A]-11-9--11-9--7------|
E]--------------------|

e]------------------------------------|
B]------------------------------------|
G]-6-6-6-6-6-6-6--4-4-4-4-4-4-4-------|
D]-6-6-6-6-6-6-6--4-4-4-4-4-4-4-------|  X1
A]-4-4-4-4-4-4-4--2-2-2-2-2-2-2-------|
E]------------------------------------|

e]--------------------------------------------------------------------|
B]--0-0-0-0-0-0-0-0-0-0-0-0-0-0-0-0-0-0-0-0-0-0-0-0-0-0-0-0-0-0-0-0-0-|
G]--9-9-9-9-9-9-9-9-9-9-9-9-9-9-9-9-9-9-9-9-9-9-9-9-9-9-9-9-9-9-9-9-9-|
D]--9-9-9-9-9-9-9-9-9-9-9-9-9-9-9-9-9-9-9-9-9-9-9-9-9-9-9-9-9-9-9-9-9-|
A]--7-7-7-7-7-7-7-7-7-7-7-7-7-7-7-7-7-7-7-7-7-7-7-7-7-7-7-7-7-7-7-7-7-|
E]--------------------------------------------------------------------|


e]------------------------------------|
B]------------------------------------|
G]-6-6-6-6-6-6-6--4-4-4-4-4-4-4-------|
D]-6-6-6-6-6-6-6--4-4-4-4-4-4-4-------|  X1
A]-4-4-4-4-4-4-4--2-2-2-2-2-2-2-------|
E]------------------------------------|

e]---------------------------------------------------|
B]---------------------------------------------------|
G]---------------------------------------------------|
D]------------------------9h11p9---------------------|  X2
A]-11-11-11-11-11-11-11-11-------11-11-11-11-9-9h11b-|
E]-0--0--0--0--0--0--0--0--------0--0--0--0--0-0-0---|

e]----------------------------------------------|
B]----------------------------------------------|
G]----------------------------------------------|
D]----------------------------------------------|    X1
A]-11-11-11-11-11-11-11-11-9\7/9-11-11-11-11-11-|
E]-0--0--0--0--0--0--0--0--0-----0--0--0--0--0--|


e]-----------------------------------------------|
B]-----------------------------------------------|
G]-----------------------------------------------|
D]-----------------------------------------------|  X1
A]-11-11-11-11-11-11-11-11-9-9-9-11-11b-11/12\11-|
E]-0--0--0--0--0--0--0--0--0-0-0-0--0--0---------|

e]--0---------0--------0--------0-0----|
B]--12---12-------12-------12-----12---|
G]--12------12-------12-------12--12---|
D]--10-10-------10-------10-------10---|   x8
A]--10----------------------------10---|
E]-------------------------------------|


e]------------------------------------|
B]------------------------------------|
G]-6-6-6-6-6-6-6--4-4-4-4-4-4-4-------|
D]-6-6-6-6-6-6-6--4-4-4-4-4-4-4-------|  X1
A]-4-4-4-4-4-4-4--2-2-2-2-2-2-2-------|
E]------------------------------------|

e]-------------------------------------------------------------------|
B]-------------------------------------------------------------------|
G]-9-9-9-9-9-9-9--11-11--13-13-13-13-13-13-13-14-14-13-13-13-13-13---|
D]-x-x-x-x-x-x-x--x--x---x--x--x--x--x--x--x--x--x--x--x--x--x--x----|
A]-7-7-7-7-7-7-7--9--9---11-11-11-11-11-11-11-12-12-11-11-11-11-11---|
E]-------------------------------------------------------------------|

e]--------------------|
B]--------------------|
G]-13-11-13-11-9------|
D]-x--x--x--x--x------|
A]-11-9--11-9--7------|
E]--------------------|

e]-0-x-0-0-0-0-x-x--|
B]-0-x-0-0-0-0-x-x--|
G]-1-x-1-1-1-1-x-x--|
D]-2-x-2-2-2-2-x-x--|  X4
A]-2-x-2-2-2-2-x-x--|
E]-0-x-0-0-0-0-x-x--|

e]-----------------------------------------------------------------|
B]--0-0-0-0-0-0-0-0-10-10-10-10-10-10-10-9-9-9-9-9-9-9-9-9-9-9-9-9-|
G]--9-9-9-9-9-9-9-9-9--9--9--9--9--9--9--9-9-9-9-9-9-9-9-9-9-9-9-9-|
D]--9-9-9-9-9-9-9-9-9--9--9--9--9--9--9--9-9-9-9-9-9-9-9-9-9-9-9-9-|
A]--7-7-7-7-7-7-7-7-7--7--7--7--7--7--7--7-7-7-7-7-7-7-7-7-7-7-7-7-|
E]-----------------------------------------------------------------|

e]------------------------------------|
B]------------------------------------|
G]-6-6-6-6-6-6-6--4-4-4-4-4-4-4-------|
D]-6-6-6-6-6-6-6--4-4-4-4-4-4-4-------|  X1
A]-4-4-4-4-4-4-4--2-2-2-2-2-2-2-------|
E]------------------------------------|


e]-------------------------------------------------------------------|
B]-------------------------------------------------------------------|
G]-9-9-9-9-9-9-9--11-11--13-13-13-13-13-13-13-14-14-13-13-13-13-13---|
D]-x-x-x-x-x-x-x--x--x---x--x--x--x--x--x--x--x--x--x--x--x--x--x----|
A]-7-7-7-7-7-7-7--9--9---11-11-11-11-11-11-11-12-12-11-11-11-11-11---|
E]-------------------------------------------------------------------|

e]--------------------|
B]--------------------|
G]-13-11-13-11-9------|
D]-x--x--x--x--x------|
A]-11-9--11-9--7------|
E]--------------------|

e]-----------------------------------------------------------------|
B]--0-0-0-0-0-0-0-0-10-10-10-10-10-10-10-9-9-9-9-9-9-9-9-9-9-9-9-9-|
G]--9-9-9-9-9-9-9-9-9--9--9--9--9--9--9--9-9-9-9-9-9-9-9-9-9-9-9-9-|
D]--9-9-9-9-9-9-9-9-9--9--9--9--9--9--9--9-9-9-9-9-9-9-9-9-9-9-9-9-|
A]--7-7-7-7-7-7-7-7-7--7--7--7--7--7--7--7-7-7-7-7-7-7-7-7-7-7-7-7-|
E]-----------------------------------------------------------------|


e]------------------------------------|
B]------------------------------------|
G]-6-6-6-6-6-6-6--4-4-4-4-4-4-4-------|
D]-6-6-6-6-6-6-6--4-4-4-4-4-4-4-------|  X1
A]-4-4-4-4-4-4-4--2-2-2-2-2-2-2-------|
E]------------------------------------|

e]-----------------------------------------------------------------|
B]--0-0-0-0-0-0-0-0-10-10-10-10-10-10-10-9-9-9-9-9-9-9-9-9-9-9-9-9-|
G]--9-9-9-9-9-9-9-9-9--9--9--9--9--9--9--9-9-9-9-9-9-9-9-9-9-9-9-9-|
D]--9-9-9-9-9-9-9-9-9--9--9--9--9--9--9--9-9-9-9-9-9-9-9-9-9-9-9-9-|
A]--7-7-7-7-7-7-7-7-7--7--7--7--7--7--7--7-7-7-7-7-7-7-7-7-7-7-7-7-|
E]-----------------------------------------------------------------|

e]------------------------------------|
B]------------------------------------|
G]-6-6-6-6-6-6-6--4-4-4-4-4-4-4-------|
D]-6-6-6-6-6-6-6--4-4-4-4-4-4-4-------|  X1
A]-4-4-4-4-4-4-4--2-2-2-2-2-2-2-------|
E]------------------------------------|

e]---------------------------------------------------|
B]---------------------------------------------------|
G]---------------------------------------------------|
D]------------------------9h11p9---------------------|  X4
A]-11-11-11-11-11-11-11-11-------11-11-11-11-9-9h11b-|
E]-0--0--0--0--0--0--0--0--------0--0--0--0--0-0-0---|

e]-----------------------------------------------|
B]-----------------------------------------------|
G]-----------------------------------------------|
D]-----------------------------------------------|  X2
A]-11-11-11-11-11-11-11-11-9-9-9-11-11b-11/12\11-|
E]-0--0--0--0--0--0--0--0--0-0-0-0--0--0---------|

Done. 

e]---------------------------------|
B]---------------------------------|
G]---------------------------------|
D]---------------------------------|
A]---------------------------------|
E]---------------------------------|
Suggest correction
Give kudos to tab author, rate the tab!
1 2 3 4 5
comments
print report bad tab
guest
You may want to rate the tab now too:
select rating
Wanna post a correction for this tab? Suggest correction